• 0
  • Share
  • Transposing
    0
  • Font Size
Morissette Alanis – You Learn
Song: You Learn
Album: Jagged Little Pill

Intro and Verses
G4 G F4 F
E ------3----------3----------1---------1----------|
B ------3----------3----------1---------1----------|
G ------5----------4----------3---------2----------|
D ------5----------5----------3---------3----------|
A ------5----------5----------3---------3----------|
E ------3----------3----------1---------1----------|

Bridge
C D
E ---0-----------0-----------|
B ---1-----------3-----------|
G ---0-----------0-----------|
D ---2-----------4-----------|
A ---3-----------5-----------|
E ---3-----------5-----------|

Chorus
Gsus Gsus1 Gsus2 Gsus3
E ---3--------3---------3---------3----|
B ---3--------3---------3---------3----|
G ---0--------0---------2---------0----|
D ---0--------2---------0---------x----|
A ---2--------x---------x---------3-----|
E ---3--------3---------3---------0----|

Intro
G4 G F4 F (2 times)
Verse
G4 G F4 F G4 G F4 F
I recommend getting your heart trampled on to anyone
G4 G F4 F G4 G F4 F
I recommend walking around naked in your living room
Bridge
C D
Swallow it down (what a jagged little pill)
C D
It feels so good (swimming in your stomach)
C D
Wait until the dust settles

Chorus
Gsus Gsus1
You live you learn
Gsus2
You love you learn
Gsus3
You cry you learn
Gsus
You lose you learn
Gsus1
You bleed you learn
Gsus2 Gsus3
You scream you learn

Verse
I recommend biting off more then you can chew to anyone
I certainly do
I recommend sticking your foot in your mouth at any time
Feel free
Bridge
Throw it down (the caution blocks you from the wind)
Hold it up (to the rays)
You wait and see when the smoke clears
Chorus
You live you learn
You love you learn
You cry you learn
You lose you learn
You bleed you learn
You scream you learn

Riff
A# C G (8 times)

Bridge
Wear it out (the way a three-year-old would do)
Melt it down (you're gonna have to eventually anyway)
The fire trucks are coming up around the bend
Chorus
You live you learn
You love you learn
You cry you learn
You lose you learn
You bleed you learn
You scream you learn

You grieve you learn
You choke you learn
You laugh you learn
You choose you learn
You pray you learn
You ask you learn
You live you learn
(End on G)

Log In to leave a comment

After registration we will return you to the same place
Comments
face-with-monocle
If you wait a bit, some comments may appear here...

Shhh...

Most Popular
You Might Like