Loading...
Modest Mouse logo

Birds Vs Worms Modest Mouse

  • 0
  • Share
  • Transposing
    0
  • Font Size
*Intro/Outro*     Played 4x like this...

E--------------------------------------------------------------------------------------|
B------7------7------------------------------------------------------------------------|
G----7---7--7---7--7/9--9--9/14--9--7--7--4-4-4-4-2-4-4-4-4-4-2-4--4/6-----------------|
D--------------------------------------------------------------------------------------|
A--------------------------------------------------------------------------------------|
E--------------------------------------------------------------------------------------|

Last part of intro/outro changes a tiny bit, and the end fades off and into verse...

E--------------------------------------------------------------------------------------|
B------7------7------------------------------------------------------------------------|
G----7---7--7---7--7/9--9--9/14--12--7--7--4-4-4-4-2-4-4-4-4-4-2-4--4/6----------------|
D--------------------------------------------------------------------------------------|
A--------------------------------------------------------------------------------------|
E--------------------------------------------------------------------------------------|

*Verse* Repeated .. I don't know how many times.

E--------------------------------------------------------------------------------------|
B--------------------------------------------------------------------------------------|
G----14--14--14-14-14---9--9--9-9-9--9--9--9-9-9---------------------------------------|
D----14--14--14-14-14---9--9--9-9-9--9--9--9-9-9---9--9--9-9-9-------------------------|
A----12--12--12-12-12---7--7--7-7-7--7--7--7-7-7---9--9--9-9-9-------------------------|
E--------------------------------------------------7--7--7-7-7-------------------------|

*

Here's an easier way to play the song then what is on the site. I dont have the cd here,
Its a bit off. Here's the basic gist of it.
E-----------------------------------------------------------------------------------------------------------|
B-----------------------------------------------------------------------------------------------------------|
G---------11-------11------------------14--14--12--11-------------------------------------------------------|
D--12----------12-----12---12/14-------------------------14---------------------------------------------11--|
A---------------------------------------------------------------------14--14--14--12-12--14--12--14---------|
E-----------------------------------------------------------------------------------------------------------|

Log In to leave a comment

After registration we will return you to the same place
Comments
face-with-monocle
If you wait a bit, some comments may appear here...

Shhh...

Versions

Most Popular
You Might Like