Misfits logo

From Hell They Came Misfits

  • 0
  • Share
  • Transposing
    0
  • Font Size
Misfits – From Hell They Came
Artist:  The Misfits
Song: From Hell They Came
Album: American Psycho
Track: 6
Tabbed by: Rick ([email protected])
AIM: unhlax23

Chords:

D#5 (x688xx)
A#5 (688xxx)
C5 (8-10-10xxx) or (x355xx)
C#5 (x466xx) or (9-11-11xxx)
G#5 (466xxx)
F5 (133xxx)

Intro:

E|---------------------------------------------------------------------------|
B|---------------------------------------------------------------------------|
G|-8-8-8-8-8-8-8-8-----------------------------------------------------------|
D|-8-8-8-8-8-8-8-8-8-8-8-8-8-8-8-8-10-10-10-10-10-10-10-10-6-6-6-6-6-6-6-6---|
A|-6-6-6-6-6-6-6-6-8-8-8-8-8-8-8-8-10-10-10-10-10-10-10-10-6-6-6-6-6-6-6-6---|
E|-----------------6-6-6-6-6-6-6-6--8--8--8--8--8--8--8--8-4-4-4-4-4-4-4-4---|
Cont:
E|-----------------------------------------------------------------|
B|-----------------------------------------------------------------|
G|-6---------------------------------------------------------------|
D|-6-------6-------8-8-8-8-8-8-8-8-8-8-8-8-8-8-8-8-----------------|
A|-4-------6-------8-8-8-8-8-8-8-8-8-8-8-8-8-8-8-8-----------------|
E|---------4-------6-6-6-6-6-6-6-6-6-6-6-6-6-6-6-6-----------------|
|------------------------------|
palm mute

Verse:

E|---------------------------------------------------------------------------|
B|---------------------------------------------------------------------------|
G|-8-8-8-8-8-8-8-8-----------------------------------------------------------|
D|-8-8-8-8-8-8-8-8-8-8-8-8-8-8-8-8-10-10-10-10-10-10-10-10-6-6-6-6-6-6-6-6---|
A|-6-6-6-6-6-6-6-6-8-8-8-8-8-8-8-8-10-10-10-10-10-10-10-10-6-6-6-6-6-6-6-6---|
E|-----------------6-6-6-6-6-6-6-6--8--8--8--8--8--8--8--8-4-4-4-4-4-4-4-4---|
Cont.
E|-----------------------------------------------------------------|
B|-----------------------------------------------------------------|
G|-6-6-6-6-6-6-6-6-------------------------------------------------|
D|-6-6-6-6-6-6-6-6-6-6-6-6-6-6-6-6-8-8-8-8-8-8-8-8-8-8-8-8-8-8-8-8-|
A|-4-4-4-4-4-4-4-4-6-6-6-6-6-6-6-6-8-8-8-8-8-8-8-8-8-8-8-8-8-8-8-8-|
E|-----------------4-4-4-4-4-4-4-4-6-6-6-6-6-6-6-6-6-6-6-6-6-6-6-6-|

Chorus:

E|----------------------------------------------------------------------------|
B|----------------------------------------------------------------------------|
G|----------------------------------------------------------------------------|
D|8-10-11-11-11-11-11-11-11-11-6-6-6-6-6-6-6-6-8-8-8-8-8-8-8-8-8-8-8-8-8-8-8-8|
A|8-10-11-11-11-11-11-11-11-11-6-6-6-6-6-6-6-6-8-8-8-8-8-8-8-8-8-8-8-8-8-8-8-8|
E|6--8--9--9--9--9--9--9--9--9-4-4-4-4-4-4-4-4-6-6-6-6-6-6-6-6-6-6-6-6-6-6-6-6|

Bridge:

E|-----------------------------------------------------------------|
B|-----------------------------------------------------------------|
G|-5-5-5-5-5-5-5-5-----5-5-----------------------------------------|
D|-5-5-5-5-5-5-5-5-3-3-5-5-6-6-8-8-8-8-8-8-8-8-8-8-8-8-8-8-8-8-----|
A|-3-3-3-3-3-3-3-3-3-3-3-3-6-6-8-8-8-8-8-8-8-8-8-8-8-8-8-8-8-8-----|
E|-----------------1-1-----4-4-6-6-6-6-6-6-6-6-6-6-6-6-6-6-6-6-----|

That's all of it. Rate this and email me with questions. Later.

Log In to leave a comment

After registration we will return you to the same place
Comments
face-with-monocle
If you wait a bit, some comments may appear here...

Shhh...