Loading...
Misfits logo

Fiend Club Misfits

  • 0
  • Share
  • Transposing
    0
  • Font Size
Artist: Misfits
Song: Fiend Club*
Album:Famous Monsters
Tuning: Standard

Fiend Club is the song that got them big on MTV2 if you watched. I like the song
Also. Its not to complicated either. Comments or Questions: AIM: Misfits3388

*remember. have octave pedal or Distortion on.*

Intro:
1|-----------------------------|
2|-----------------------------|
3|-----------------------------|
4|-6------------2-----------4--|
5|-6------------2-----------4--|
6|-4--7-4-7-4-7-0-0-0-0-0-0-2--|

Verse: Verse End:
1|---------------------------|------------------------------------|
2|---------------------------|------------------------------------|
3|---------------------------|------------------------------------|
4|---------------------------|-4--6-6-6-6-6-4-2--4-6-6-6-6-6-4-2--|
5|---------------------------|-4--6-6-6-6-6-4-2--4-6-6-6-6-6-4-2--|
6|-4-7-4-7-4-7-0-0-0-0-0-0-2-|-2--4-4-4-4-4-2-0--2-4-4-4-4-4-2-0--|

Chorus: Chorus End:
1|------------------------------|-----------------------|
2|------------------------------|-----------------------|
3|-----------------1--1-1-------|--------------1--1-1-1-|
4|-4--4-4--8--8-8--2--2-2-------|-6--6-6-6--6--2--2-2-2-|
5|-2--2-2--6--6-6--2--2-2--4--4-|-4--4-4-4--4--2--2-2-2-|
6|-------------------------2--2-|-----------------------|

Outro
1|---|
2|---|
3|-4-|
4|-4-|
5|-2-|
6|---|

Song Form:
Intro-4X's
Verse-4X's
Verse End-as is
Chorus-3X's
Chorus End-2X's
Verse-4X's
Verse End- as is
Chorus-3X's
Chorus End-2X's
Intro-is solo
Chorus-6X's
Chorus End-2X's
Outro

IM me for help
AIM-Misfits3388

Ps. I just updated this June 13, 2004

Log In to leave a comment

After registration we will return you to the same place
Comments
face-with-monocle
If you wait a bit, some comments may appear here...

Shhh...