Loading...
Misc Showtunes logo

Airwolf Theme Misc Showtunes

  • 0
  • Share
  • Transposing
    0
  • Font Size
AIRWOLF

I've been searching for months to find a tab for this song.
But I couldn't find one, so I made it myself.
This is the entire song and it's 100% correct :-)

|---------|---------4-6--9-8----|-----9-8----------8-|
|---------|----4-6------------9-|-11-------9-11--9---|
|---------|-3-------------------|--------------------|
|---------|---------------------|--------------------|
|---------|---------------------|--------------------|
|---------|---------------------|--------------------|

|---------------|---------4-6--9-8----|-----9-8----------8-|
|-6--4--2-4-----|------6------------9-|-11-------9-11--9---|
|-----------5---|----8----------------|--------------------|
|-------------6-|-8-------------------|--------------------|
|---------------|---------------------|--------------------|
|---------------|---------------------|--------------------|

|---------------|---------7-9--14-13-----|-----14-13------------11-|
|-6--4--2-4-----|----7-9--------------12-|-14---------12-14--12----|
|-----------5---|-6----------------------|-------------------------|
|-------------6-|------------------------|-------------------------|
|---------------|------------------------|-------------------------|
|---------------|------------------------|-------------------------|

|---------4-----|----2-4--7-9--14-13-----|-----14-13---------19-18------|
|-9--7--6---4---|-2-------------------12-|-14---------12-14--21-21--19--|
|-------------4-|------------------------|------------------------------|
|---------------|------------------------|------------------------------|
|---------------|------------------------|------------------------------|
|---------------|------------------------|------------------------------|

|---------------|-----------------------------|-------------------------|
|-21----(21)----|-----------------------------|-------------------------|
|-18----(18)----|-------------------18-17-----|-----18-17------------17-|
|---------------|------------18-20---------18-|-20---------18-20--18----|
|---------------|-----18-20-------------------|-------------------------|
|---------------|-18--------------------------|-------------------------|

|---------------------|-----------------------------|-------------------------|
|---------------------|-----------------------------|-------------------------|
|---------------------|-------------------18-17-----|-----18-17------------17-|
|-15--13--11-13-------|------------18-20---------18-|-20---------18-20--18----|
|---------------15----|-----18-20-------------------|-------------------------|
|------------------16-|-18--------------------------|-------------------------|

|---------------------|-------------------14-13-----|
|---------------------|---------------14---------12-|
|---------------------|------------16---------------|
|-15--13--11-13-------|-----16-18-------------------|
|---------------15----|-16--------------------------|
|------------------16-|-----------------------------|

|-----14-13---------19-18------|
|-14---------12-14--21-21--19--|
|------------------------------|
|------------------------------|
|------------------------------|
|------------------------------|

|---------------|-----------------|-----------------|-----------------|
|-21----(21)----|-----------------|-----------------|-----------------|
|-18----(18)----|-18--17----------|-----------------|-18--17----------|
|---------------|---------18--20--|-----------------|---------18--20--|
|---------------|-----------------|-18--20------18--|-----------------|
|---------------|-----------------|---------20------|-----------------|

|-----------------|-----------------|-----------------|-14--13----------|
|-----------------|-19--18----------|-16----------16--|-------------14--|
|-----------------|-------------18--|---------17------|---------13------|
|-----------------|---------18------|-----18----------|-----------------|
|-18--20------18--|-----------------|-----------------|-----------------|
|---------20------|-----------------|-----------------|-----------------|

|-----------------|-----------|-----------------------------|
|-16----------16--|-----------|-----------------------------|
|---------17------|-15--------|-----------------------------|
|-----18----------|-----------|---------------13-13--13-13--|
|-----------------|-----------|-13-13--13-13--13-13--13-13--|
|-----------------|-----------|-----------------------------|

|-----------------------------|-14-14--14-14--19-19--19-19--|
|---------------14-14--14-14--|-14-14--14-14--19-19--19-19--|
|-13-13--13-13--13-13--13-13--|-----------------------------|
|-13-13--13-13----------------|-----------------------------|
|-----------------------------|-----------------------------|
|-----------------------------|-----------------------------|

|-18-18--18-18-18--18-18-18--18-18-18--18-|-18---------*|
|-18-18--18-18-18--18-18-18--18-18-18--18-|-18---------*|
|-----------------------------------------|------------*|
|-----------------------------------------|------------*|
|-----------------------------------------|------------*|
|-----------------------------------------|------------*|

Log In to leave a comment

After registration we will return you to the same place
Comments
face-with-monocle
If you wait a bit, some comments may appear here...

Shhh...

Versions

Most Popular