Loading...
Misc Scales logo

Pentatonic Misc Scales

  • 0
  • Share
  • Transposing
    0
  • Font Size
These are all the pentatonic scales, the picture represents the fretboard,
Its not meant to be tab.

Minor Pentatonic Scales: 1 m3 4 5 b7
Major Pentatonic Scales: 1 2 3 5 6

Am Scale: A C D E G
C Scale: C D E G A
|-0--------3-----5--------8-----10-----|-12----------15------17----------20------22-----|
|----1-----3-----5--------8-----10-----|-----13------15------17----------20------22-----|
|-0-----2--------5-----7-----9---------|-12------14----------17------19------21---------|
|-0-----2--------5-----7--------10-----|-12------14----------17------19----------22-----|
|-0--------3-----5-----7--------10-----|-12----------15------17------19----------22-----|
|-0--------3-----5--------8-----10-----|-12----------15------17----------20------22-----|

A#m Scale: A# C# D# F G#
C# Scale: C# D# F G# A#
|----1--------4-----6--------9------11-|-----13----------16------18----------21------23-|
|-------2-----4-----6--------9------11-|---------14------16------18----------21------23-|
|----1-----3--------6-----8-----10-----|-----13------15----------18------20------22-----|
|----1-----3--------6-----8---------11-|-----13------15----------18------20----------23-|
|----1--------4-----6-----8---------11-|-----13----------16------18------20----------23-|
|----1--------4-----6--------9------11-|-----13----------16------18----------21------23-|

Bm Scale: B D E F# A
D Scale: D E F# A B
|-0-----2--------5-----7--------10-----|-12------14----------17------19----------22-----|
|-0--------3-----5-----7--------10-----|-12----------15------17------19----------22-----|
|-------2-----4--------7-----9------11-|---------14------16----------19------21------23-|
|-0-----2-----4--------7-----9---------|-12------14------16----------19------21---------|
|-0-----2--------5-----7-----9---------|-12------14----------17------19------21---------|
|-0-----2--------5-----7--------10-----|-12------14----------17------19----------22-----|

Cm Scale: C D# F G A#
D# Scale: D# F G A# C
|----1-----3--------6-----8---------11-|-----13------15----------18------20----------23-|
|----1--------4-----6-----8---------11-|-----13----------16------18------20----------23-|
|-0--------3-----5--------8-----10-----|-12----------15------17----------20------22-----|
|----1-----3-----5--------8-----10-----|-----13------15------17----------20------22-----|
|----1-----3--------6-----8-----10-----|-----13------15----------18------20------22-----|
|----1-----3--------6-----8---------11-|-----13------15----------18------20----------23-|

C#m Scale: C# E F# G# B
E Scale: E F# G# B C#
|-0-----2-----4--------7-----9---------|-12------14------16----------19------21---------|
|-0-----2--------5-----7-----9---------|-12------14----------17------19------21---------|
|----1--------4-----6--------9------11-|-----13----------16------18----------21------23-|
|-------2-----4-----6--------9------11-|---------14------16------18----------21------23-|
|-------2-----4--------7-----9------11-|---------14------16----------19------21------23-|
|-0-----2-----4--------7-----9---------|-12------14------16----------19------21---------|

Dm Scale: D F G A C
F Scale: F G A C D
|----1-----3-----5--------8-----10-----|-----13------15------17----------20------22-----|
|----1-----3--------6-----8-----10-----|-----13------15----------18------20------22-----|
|-0-----2--------5-----7--------10-----|-12------14----------17------19----------22-----|
|-0--------3-----5-----7--------10-----|-12----------15------17------19----------22-----|
|-0--------3-----5--------8-----10-----|-12----------15------17----------20------22-----|
|----1-----3-----5--------8-----10-----|-----13------15------17----------20------22-----|

D#m Scale: D# F# G# A# C#
F# Scale: F# G# A# C# D#
|-------2-----4-----6--------9------11-|---------14------16------18----------21------23-|
|-------2-----4--------7-----9------11-|---------14------16----------19------21------23-|
|----1-----3--------6-----8---------11-|-----13------15----------18------20----------23-|
|----1--------4-----6-----8---------11-|-----13----------16------18------20----------23-|
|----1--------4-----6--------9------11-|-----13----------16------18----------21------23-|
|-------2-----4-----6--------9------11-|---------14------16------18----------21------23-|

Em Scale: E G A B D
G Scale: G A B D E
|-0--------3-----5-----7--------10-----|-12----------15------17------19----------22-----|
|-0--------3-----5--------8-----10-----|-12----------15------17----------20------22-----|
|-0-----2-----4--------7-----9---------|-12------14------16----------19------21---------|
|-0-----2--------5-----7-----9---------|-12------14----------17------19------21---------|
|-0-----2--------5-----7--------10-----|-12------14----------17------19----------22-----|
|-0--------3-----5-----7--------10-----|-12----------15------17------19----------22-----|

Fm Scale: F G# A# C D#
Ab Scale: G# A# C D# F
|----1--------4-----6-----8---------11-|-----13----------16------18------20----------23-|
|----1--------4-----6--------9------11-|-----13----------16------18----------21------23-|
|----1-----3-----5--------8-----10-----|-----13------15------17----------20------22-----|
|----1-----3--------6-----8-----10-----|-----13------15----------18------20------22-----|
|----1-----3--------6-----8---------11-|-----13------15----------18------20----------23-|
|----1--------4-----6-----8---------11-|-----13----------16------18------20----------23-|

F#m Scale: F# A B C# E
A Scale: A B C# E F#
|-0-----2--------5-----7-----9---------|-12------14----------17------19------21---------|
|-0-----2--------5-----7--------10-----|-12------14----------17------19----------22-----|
|-------2-----4-----6--------9------11-|---------14------16------18----------21------23-|
|-------2-----4--------7-----9------11-|---------14------16----------19------21------23-|
|-0-----2-----4--------7-----9---------|-12------14------16----------19------21---------|
|-0-----2--------5-----7-----9---------|-12------14----------17------19------21---------|

Gm Scale: G A# C D F
A# Scale: A# C D F G
|----1-----3--------6-----8-----10-----|-----13------15----------18------20------22-----|
|----1-----3--------6-----8---------11-|-----13------15----------18------20----------23-|
|-0--------3-----5-----7--------10-----|-12----------15------17------19----------22-----|
|-0--------3-----5--------8-----10-----|-12----------15------17----------20------22-----|
|----1-----3-----5--------8-----10-----|-----13------15------17----------20------22-----|
|----1-----3--------6-----8-----10-----|-----13------15----------18------20------22-----|

Abm Scale: G# B C# D# F#
B Scale: B C# D# F# G#
|-------2-----4--------7-----9------11-|---------14------16----------19------21------23-|
|-0-----2-----4--------7-----9---------|-12------14------16----------19------21---------|
|----1--------4-----6-----8---------11-|-----13----------16------18------20----------23-|
|----1--------4-----6--------9------11-|-----13----------16------18----------21------23-|
|-------2-----4-----6--------9------11-|---------14------16------18----------21------23-|
|-------2-----4--------7-----9------11-|---------14------16----------19------21------23-|

Log In to leave a comment

After registration we will return you to the same place
Comments
face-with-monocle
If you wait a bit, some comments may appear here...

Shhh...