Miller Steve logo

Swingtown Miller Steve

  • 6
  • Share
  • Font Size
    15
Miller Steve – Swingtown
Artist: Steve Miller Band
Song: Swingtown
Tabbed by: John Leadman

Intro:
Slide and palm mute this part
Guitar 1
|----------------------|
|----------------------|
|-----8--10-----8--10--|
|--8--8--10--8--8--10--|
|--8--6--8---8--6--8---|
|--6---------6---------|

Guitar 2
Dirty tone
     v
|---------------|--------|
|---------------|--------|
|---------------|-8--8---|
|--8-8-8~~~~~~--|-8--8---|
|--8-8-8~~~~~~~~|-6--6---|
|--6-6-6~~~~~~~~|--------|
              Swing--town

Verse:
|---------------------------------------------|
|--10-10-10---10-10-10--10---10---10-10-10----|
|--10-10-10---10-10-10--10---10---10-10-10----|
|--10-10-10---10-10-10--10---10---10-10-10----|
|--8--8--8----8--8--8---8----8----8--8--8-----|
|---------------------------------------------|

 Solo:                                                Ending
|----------------------------------------------------|---------------------10---|
|-10-11-11-10-11-10-11-13-10-11-11-10-11-10-11-10----|-11h13p11p10--/10-11------|
|-10-10-10-10-10-10-10-10-10-10-10-10-10-10-10-10---'|--------------/10---------|
|---------------------------------------------------'|--------------------------|
|----------------------------------------------------|--------------------------|
|----------------------------------------------------|--------------------------|

After Solo
Heavy p.m.
Strum tremlo style

|--------------------|
|--------------------|
|----8-10------------|
|--8-8-10------------|
|--8-6-8-------------|
|--6-----------------|

Outro: I dont know if this is guitar or not.

|--------------------------------------------------------|
|--------------------------------------------------------|
|--------------------------------------------------------|
|--3/15-13-12-10-13-12-8-3-------3/15-13-12-10-13-12-8---|
|--------------------------------------------------------|
|--------------------------------------------------------|

Log In to leave a comment

After registration we will return you to the same place
Comments
face-with-monocle
If you wait a bit, some comments may appear here...

Shhh...