Millencolin logo

Move Your Car Millencolin

  • 0
  • Share
  • Font Size
    15
Millencolin – Move Your Car
Song:move your car
Band:millencolin
Album:life on a plate
Tabbed by:Jen

Intro:
G:---------------------------------------------------------------
D:-7-7--7-7--7-7--7-----------------------------------------------------
A:-----------------7-5-4--------------------------------------------
E:---------------------------------------------------------------

Verse:
G:---------------------------------------------------------------
D:--------9-9-----------------x2-------------------------------------
A:--4-4--7-7---0-2-4-5-4-2--------------------------------------------
E:-5-5--------3-----------4-----------------------------------------

Instir:
G:---------------------------7-6-5----------------------------------
D:-5-7-7-7-7-7--5-7-7-7-7-7-------5------------------------------------------
A:---------------------------------------------------------------
E:---------------------------------------------------------------

G:---------------------------12-14-14-14-14-14----14-14-14-14-14----------------------
D:-5-7-7-7-7-7--5-7-7-7-7-7--------------------12-----------------------------
A:---------------------------------------------------------------
E:---------------------------------------------------------------

Chorus
G:-----------------------7-7-7-7-7-7-7-7-7-7-7------------------------------
D:-0-0-0-0-0-0-0-0-0-0-0----------------------------------------------------
A:---------------------------------------------------------------
E:---------------------------------------------------------------

G:---------------------------------------------------------------
D:---------------------------------------------------------------
A:-----------------------5-5-5-5-5-5-5-5-5-5-5------------------------------
E:-3-3-3-3-3-3-3-3-3-3-3----------------------------------------------------

Well thats it apart from a few variations which i haven't worked out.
Email me if u have any corrections
General_corey@hotmail.com

Cya

Jen

Log In to leave a comment

After registration we will return you to the same place
Comments
face-with-monocle
If you wait a bit, some comments may appear here...

Shhh...