Loading...
Midnight Oil logo

Powderworks Midnight Oil

  • 0
  • Share
  • Transposing
    0
  • Font Size
#----------------------------------PLEASE NOTE---------------------------------#
#This file is the author's own work and represents their interpretation of the #
#song. You may only use this file for private study, scholarship, or research. #
#------------------------------------------------------------------------------##

The best Oils song ever made:
POWDERWORKS - from the self-titled album

Play fast

Intro Riff:
|--------------------------------|
|--------------------------------|
|--------------------------------|
|--5---5---3-----3-----5---3-----|
|--3---3---1-0---1-0---3---1-0---|
|--------------1-----1---------1-|

Play a few times with heaps good solo (thanks to Jim Moginie - the champ)
Over the top of it (i cant work it out)

Then:
|--------------------------------|--------------------------------|
|--------------------------------|--------------------------------|
|--------------------------------|--------------------------------|
|--------------------------------|--0-----0-----0-----0-----------|
|--2-----2-----2-----2-----2-----|----2-----2-----2-----2---------|
|----4-0---4-0---4-0---4-0---4-0-|------4-----4-----4-------------|

Then into the 1st verse:

Am C D G F9 E9
Strum: | ||||||| | |

This is repeated throught all verses.

Verse 1:
There's a shit storm a'coming, and i feel it coming soon

...
Oh well, i can't remember it properly off the top of my head

If i have time i'll mail more later.

Oils are LEGENDS!

If anyone has any tab for early Oils (esp. the solo for start of PowderWorks,
PLEASE send it in to the nevada guitar archives.

--Matt - [email protected]
------------------------------------------------------------------------

Log In to leave a comment

After registration we will return you to the same place
Comments
face-with-monocle
If you wait a bit, some comments may appear here...

Shhh...

Versions

Most Popular
You Might Like