Metallica logo

Phantom Lord Metallica

  • 0
  • Share
  • Font Size
Metallica – Phantom Lord
Intro after fading in Bass.
||-----------------------------------------------------------------------------
||-----------------------------------------------------------------------------
||-2-----2--2-----2--2--2-----2--2-----2-----4-----4--4-----4--4--4-----4--4---
||-2-----2--2-----2--2--2-----2--2-----2-----4-----4--4-----4--4--4-----4--4---
||-0-----0--0-----0--0--0-----0--0-----0-----2-----2--2-----2--2--2-----2--2---
||-----------------------------------------------------------------------------

Main Riff. This is played all throughout the song, including right after the
intro and between verses.
||------------------------|---------------------||
||------------------------|---------------------||
||-----------------7--9--|--------------------*||
||--7--9--9--9--9--5--7--|--7--9--9--9--9--7--*||
||---5--7--7--7--7--------|--5--7--7--7--7--5---||
||------------------------|---------------------||

This part is played after the non-distorted part in the middle
||-----------------------------------------------------------------||
||-----------------------------------------------------------------||
||---------------------------------------------------------------*||
||---2-----2--2--2-----5--5--5--5-----4--4--4--4-----3--3--3--3--*||
||----2-----2--2--2-----5--5--5--5-----4--4--4--4-----3--3--3--3---||
||----0-----0--0--0-----3--3--3--3-----2--2--2--2-----1--1--1--1---||
\\___________Extremely_Heavy_Palm_Muting!___________/

This is played after repeating the above line the 4th time.
||------------------||
||------------------||
||------------------||
||---2--2--2--2--2--||
||---2--2--2--2--2--||
||---0--0--0--0--0--||

Log In to leave a comment

After registration we will return you to the same place
Comments
face-with-monocle
If you wait a bit, some comments may appear here...

Shhh...

Versions

Most Popular
You Might Like