Metallica logo

Let It Loose Metallica

  • 0
  • Share
  • Font Size
Metallica – Let It Loose
Metallica
Let it Loose
Written by Savage
As performed on the power demos (pre-No Life till Leather)
Tab by Phil Boyle; [email protected])
G-------------------------------------------------
D------5-----5-----5/7---------5-----5-----5-----5
A--0-0-3-0-0-3-0-0-3/5-----0-0-3-0-0-3-0-0-3-0-0-3 twice
E-------------------------------------------------
pm.............. .....................

Intro (1 guitar)2)
G------------------------------------------
D------5-----5-----5/7------5-----5-----75
A--0-0-3-0-0-3-0-0-3/5--0-0-3-0-0-3-0-0-53
E------------------------------------------
pm.......................................

Second intro (2 guitars)

3)
D--------------------------------------------------------------2
A--0-0-0-0-0-0-0-0---------------------------------3-2-3-2-3-5-0
E------------------3-3-3-3-3-3-3-3-2-2-2-2-2-2-2-2-1-0-1-0-1-3--
pm............................................................

Verse (I don't know the lyrics)

4)
G--------------------------------------------------
D--9----------------------------------------------7
A--7--7-7-7-7-7-7-10-7-7-7-7-7-7-7-12-7-7-7-7-7-7-5
E--------------------------------------------------
pm.............................................

Solo riff
5)
D--7--5--4--2
A--5--3--2--0
E------------
pm.

Second to last riff (last new riff)

====

Log In to leave a comment

After registration we will return you to the same place
Comments
face-with-monocle
If you wait a bit, some comments may appear here...

Shhh...