Metallica logo

Hero Of The Day Metallica

  • 0
  • Share
  • Font Size
Metallica – Hero Of The Day
Main Riff:Guitar 1       Tune Guitars Down 1/2 ste

E|-------------------------------------------------------------|
B|-------------------------------------------------------------|
G|-------------2-----2-----2-----2------4--------4-------4-----|
D|-----------2-----2-----2-----2------6---6--------6-------6---|
A|-----0---0-----2-----4-----5------7----------7-------7-------|
E|---2---2-----------------------------------------------------|

E|-------------------------------------------------------------|
B|.-----------------------------------------------------------.|
G|-------------2-----2-----2-----2--4-----4-------4------------|
D|-----------2-----2-----2-----2----4Н6------6-------6---------|
A|.----0---0-----2-----4-----5------7---7-------7-------7-----.|
E|---2---2-----------------------------------------------------|

E|--------------------------------|
B|------Н-p----------------------.|
G|--4--4-6-4------Н---------------|
D|------------6--6-7--------------|
A|-------------------------------.|
E|--------------------------------|

Guitar2:Main Line

E|-------------------------------------------------------------|
B|.-----------------------------------------------------------.|
G|------2-----4-----6-----7------------------------------------|
D|-------------------------------2--------2--------------------|
A|.--0-----0-----0-----0--------------------------0-----------.|
E|----------------------------0--------0-------2----2----------|

Pre-Припев:

E|-------------------------------------------------------------|
B|.-----------------------------------------------------------.|
G|---------2-----2-----2-----2---------------------------------|
D|-------2-----2-----2-----2----4Н6--6--6--6--4--4Н6-6-6-------|
A|.----0-----2-----4-----5------7----7--7--7--7--7---7-7---0--.|
E|------------------------------0----0--0--0--0--0---0-0-2---2-|

Припев:

E|-------------------------------------------------------------|
B|------------------------------------------------------------.|
G|-----2-----2----2----2---------------------------------------|
D|-----2-----2----2----2--4Н6-6--6----6---4--4Н6--6--6---------|
A|--0-----2----4-----5----7---7--7----7---7--7----7--7----0---.|
E|------------------------0---0--0----0---0--0----0--0--2---2--|

Guitar Fill 1

E|-------------------------------------------------------------|
B|----------------------------------------------~~~~~~~--------|
G|--7/9---9--9----9--9--9-11/13--13--13--13/14--14-------------|
D|-------------------------------------------------------------|
A|--5/7---7--7----7--7--7--9/11--11--11--11/12--12-------------|
E|-------------------------------------------------------------|

(Go back to Main Line, Guitar1 plays his part and Guitar2
plays this)
(Repeat 1x and end it here: End here

E|-------------------------------------------------------|-----|
B|.------------------------------------------------------------|
G|--x--x--6/7--7---------9--9/11-11--11---11\\9--9--9---9-------|
D|--------------------x----------------------------------x-----|
A|.-x--x--4/5--5------x--7--7/9---9---9----9\\7--7--7---7-------|
E|-------------------------------------------------------x-----|

Don't play seconed time

E|-------------------------------------------------------------|
B|------------------------------------------------------------.|
G|-------------------------------------------------------------|
D|--9-----9---6---6--6/7---------------------------------------|
A|------------------------------------------------------------.|
E|--7-----7---4---4--4/5---------------------------------------|

Fill 2 Guitar2:

E|--5--7--5--4--5--4--~~~~---|
B|--------------------5------|
G|---------------------------|
D|---------------------------|
A|---------------------------|
E|---------------------------|

Fill 3 Guitar2:

E|-5--7--5--4--5-------------|
B|---------------------------|
G|---------------------------|
D|---------------------------|
A|---------------------------|
E|---------------------------|

(Now go to Pre-Припев:,then Припев: Then Play this:)
With quick rests in between and some muffled strings

E|-------------------------------------------------------------|
B|.-----------------------------------------------------------.|
G|-------------------------------------------------------------|
D|--4--4---4---4---4---4---4-----------------------------------|
A|.-4--4---4---4---4---4---4---4-4-4--4-4-4-------------------.|
E|--2--2---2---2---2---2---2---0-2-3--0-2-3--------------------|

Then Comes the solo.....

E|---------------------5--------------------------5/10-10-10---|
B|--7--5--7--5-7--7-5----7-7--7--5--7--5--7--7--5--------------|
G|-------------------------------------------------------------|
D|-------------------------------------------------------------|
A|-------------------------------------------------------------|
E|-------------------------------------------------------------|

E|-10-10--9-9-9-9-9-9--7-7------------|Solo Continued
B|------------------------------------|Below:
G|------------------------------------|
D|------------------------------------|
A|------------------------------------|
E|------------------------------------|

E|---------------------5--------------------------5/12-12-12---|
B|--7--5--7--5-7--7-5----7-7--7--5--7--5--7--7--5--------------|
G|-------------------------------------------------------------|
D|-------------------------------------------------------------|
A|-------------------------------------------------------------|
E|-------------------------------------------------------------|

E|-12-12-12--10-10-10--12--12-14--14-16------------17--17------|
B|-------------------------------------------------------------|
G|------------------------------Tremolo pick the---14--14------|
D|--------------------------------------16---------------------|
A|-------------------------------------------------------------|
E|-------------------------------------------------------------|

HERO OF THE DAY
(Hetfield/Ulrich/Hammett)

Mama they try and break me..

The window burns to light the way back home
A light that warms no matter where they go
They're off to find the hero of the day
But what if they should fall by someone's wicked way

Still the window burns
Time so slowly turns
And someone there is sighing
Keepers of the flames
Do you feel your name?
Did you hear your babies crying?
Mama they try and break me
Still they try and break me

Excuse me while I tell them how to feel
These things we turn to me that still seem real
Now deservingly this easy chair
But the rocking starts the wheels of this play

Don't want your hate
But the fist I make
For you still no fear
No not on me
So please excuse me while I tell them how I feel

But now the dreams end
And now the dreams end
They everlast the night
So build a wall
Behind it crawl
And hide until it's light
So can you hear your babies crying now?

Still the window burns
Time so slowly turns
And someone there is sighing
Keepers of the flames
Did you hear your name?
Did you hear your babies crying?

But now the dreams end
And now the dreams end
They everlast the night
So build a wall
Behind it crawl
And hide until it's light
So can't you hear your babies crying now?

Mama they try and break me
Mama they try and break me
Mama they try and break me
Mama they try

Mama they try
Mama they try and break me
Mama they try and break me
Mama they try and break me
Mama they try
Mama they try

Log In to leave a comment

After registration we will return you to the same place
Comments
face-with-monocle
If you wait a bit, some comments may appear here...

Shhh...

Versions

Most Popular
You Might Like