Loading...
Mest logo

Living Dead Mest

  • 0
  • Share
  • Transposing
    0
  • Font Size
*Intro          -Guitar 1-
E ---------------------------------
B ---------------------------------
G -2-------6-------7-------9-------
D -2-------6-------7-------9-------
A -0-------4-------5-------7-------
E ---------------------------------

*Intro -Guitar 2-
E ---------------------------------------
B ---------------------------------------
G -9--7--6~--9--7--6~--9--7--6~---6------
D ------------------------------9---7~---
A ---------------------------------------
E ---------------------------------------

*Verse 1
E -----------------------------------------------------------------
B -----------------------------------------------------------------
G -22-222-222-222--66-666-666-666--77-777-777-777--99-999-999-999--
D -22-222-222-222--66-666-666-666--77-777-777-777--99-999-999-999--
A -00-000-000-000--44-444-444-444--55-555-555-555--77-777-777-777--
E -----------------------------------------------------------------

*Verse 2 (same notes, but with pm)

*Chorus
E ---------------------------------------------------------------
B ---------------------------------------------------------------
G -------------7-77-7-7----------------------xx-7-xx-7-xx-7-xx-7-
D -7-77-7-7----7-77-7-7--4-44-4-4--2-22-2-2--xx-7-xx-7-xx-7-xx-7-
A -7-77-7-7----5-55-5-5--4-44-4-4--2-22-2-2--xx-5-xx-5-xx-5-xx-5-
E -5-55-5-5--------------2-22-2-2--0-00-0-0----------------------
___2x___ ___2x___

E ------------------------------------------------------------------
B ------------------------------------------------------------------
G -------7------------------------------77-x-777-x-777-x-777-x------
D -7-----7-------44-x-444-x-22-x-222-x--77-x-777-x 777-x-777-x--9---
A -7-----5(16x)--44-x-444-x-22-x-222-x--55-x-555-x-555-x-555-x--9---
E -5(16x)--------22-x-222-x-00-x-000-x--------------------------7---

*Break -Guitar 1-
E -----------------------------------------------
B -----------------------------------------------
G ------------------------7--7-7-7-77---9-9-9-9--
D -4--4-4-4-44---2-2-2-2--7--7-7-7-77---9-9-9-9--
A -4--4-4-4-44---2-2-2-2--5--5-5-5-55---7-7-7-7--
E -2--2-2-2-22---0-0-0-0-------------------------

*Break -Guitar 2-
E ------------------------------------------------------------------------------------
B ------------------------------------------------------------------------------------
G ------------------------------------------------------------------------------------
D ------------------------------------------------------------------------------------
A -7-7-7-77---66-6-6--4-4-4-44--66-6-6---7-7-7-77---99-9-9--12-12-12-1212---99-9-9----
E ------------------------------------------------------------------------------------
________________2x________________

E -------------------------------------------
B -------------------------------------------
G -------------------------------------------
D -------------------------------------------
A -7-7-7-77---66-6-6--4-4-4-44--66-6-6--7~---
E -------------------------------------------

*End Chorus
E -------------------------------------------------
B -------------------------------------------------
G ------------------------------7--7--7--7---------
D ---------------4-4-xx-2-2-xx--7--7--7--7---------
A ---------------4-4-xx-2-2-xx--5--5--5--5---------
E ============>--2-2-xx-0-0-xx---------------------

E -------------------------------------------------------------------------------
B -------------------------------------------------------------------------------
G -------------7-77-7-7----------------------7-7-7-7-7-7-7-7--9------------------
D -7-77-7-7----7-77-7-7--4-44-4-4--2-22-2-2--7-7-7-7-7-7-7-7--9----------7-------
A -7-77-7-7----5-55-5-5--4-44-4-4--2-22-2-2--5-5-5-5-5-5-5-5--7(hold)----7-------
E -5-55-5-5--------------2-22-2-2--0-00-0-0------------------------------5(hold)-
___2x___ ___2x___

Song Order:
Intro (2x)
Verse 1 (2x)
Intro (1x)
Verse 2 (1x)
Chorus (1x)
Break *Guitar 1 (4x) / Guitar 2 (1x)
End Chorus

That should be it, i didn't get
the timing right on some of the parts,
So just listen to the song and it will be easier

Log In to leave a comment

After registration we will return you to the same place
Comments
face-with-monocle
If you wait a bit, some comments may appear here...

Shhh...