Loading...
Mental As Anything logo

The Nips Are Getting Bigger Mental As Anything

  • 0
  • Share
  • Transposing
    0
  • Font Size
* THE NIPS ARE GETTING BIGGER (M.Plaza) *

Note: Here's just a guide to the bass tab. Chords throughout verse/chorus
Are simply:

| G | G | C | C D (on last beat)|

VERSE I and III: The bass varies around this pattern.

G-|---12---11--9--------------------------------|
D-|---------------12-------10-10--------10--12--|
A-|------------------9/12---------7--7----------|
E-|---------------------------------------------|
G G C C D

VERSE II and CHORUS: Tend to bounce on the root note of the chord:

GUITAR RIFF:
G-|-----------------|---------------|-----|------|
D-|-5-5-5-5-5-5-5-5-|-5-5-5-5-0---5-|-----|------|
A-|-----------------|---------------|-3*--|-3--5-|
E-|-----------------|---------------|-----|------|
G G D G C C

*Song Finishes on C

Andrew Bee [[email protected]]

Log In to leave a comment

After registration we will return you to the same place
Comments
face-with-monocle
If you wait a bit, some comments may appear here...

Shhh...