Loading...
Melvins logo

Grinding Process Melvins

  • 0
  • Share
  • Transposing
    0
  • Font Size
Tune down one half step
Low to High D# G# C# F# A# D#
~ = just kind of bend the string and let it down lots of times
[--------------------------------------------
--------------------------------------------
--------------------------------------------

-4--7--4--10-9------------------------------
-2--5--2--8--7-4-5-5-4-3--------------------]
~~~~~~~
When King Buzzo starts singing, you play this
[--------------------------------------------
--------------------------------------------

--------------5-----------------------------
-4----5--4----3-----------------------------
-2--0-3--2--0-------------------------------]
After playing the above riff for awhile, you play this,
Then go back to the first riff
[--------------------------------------------
--------------------------------------------
--------------------------------------------

-4----5----10-9-6---------------------------
-2--0-3--2-8--7-4-5-5-4-3-------------------]
~~~~~~~
At the end, you play this
[--------------------------------------------
--------------------------------------------

-------------5------------------------------
-4--5--3--4--3--4---------------------------
-2--3--1--2-----2---------------------------]
Thats all except for the solo, but I'm not good enough to figure that out.

Log In to leave a comment

After registration we will return you to the same place
Comments
face-with-monocle
If you wait a bit, some comments may appear here...

Shhh...

Versions

Most Popular
You Might Like