Loading...
Melvins logo

Berthas Melvins

  • 0
  • Share
  • Transposing
    0
  • Font Size
This song is on STAG album

E ---------------------------------------------|
B ---------------------------------------------|
G ----------------------------- INTRO REPEAT--| 2X
D ---------------------------------------------|
A ----------200--------------------------------|
E 02025-0202---0012-02025550012----------------|

VERSE
E ------------------------------------------------------|
B ------------------------------------------------------|
G ------------------------------------------------------|
D ------------------------------------------------------|
A 44444444444444/7777/222234-44444444444444/2222/66666/4
E 20202020202022/5555/000012-20202020202022/0000/44444/2

E -------------------------------------------------|
B -------------------------------------------------|
G -------------------------------------------------|
D ----------------------------------------------/6-|
A 44444444444444/7777/222234-44444444444444/2222/4
E 20202020202022/5555/000012-20202020202022/0000/-

RIFF1 THEN GO BACK TO VERSE
E -------------------------------|
B -------------------------------|
G ----------4020-04--------------|
D -24--0--------4--04--24--0-----|
A 4--44-40-----------04--44-40-4-|
E --------02------------------02-|

ENDING RIFF
E ----------------------------------------|
B ----------------------------------------|
G ----------4020-04-----------------------|
D 24--0---------4--04--24--0--------------|
A 4--44-40-----------04--44-024-042202204-|
E --------02----------------------------2-|

THE END

Log In to leave a comment

After registration we will return you to the same place
Comments
face-with-monocle
If you wait a bit, some comments may appear here...

Shhh...