Melvins logo

Bar X The Rocking M Melvins

  • 0
  • Share
  • Transposing
    0
  • Font Size
Melvins – Bar X The Rocking M
-----------------------------------------------------------------------------
BAR X THE ROCKING M - Melvins
-----------------------------------------------------------------------------

Tabbed by an17nin17
Email - [email protected]

Tune Down Ѕ Step - Eb, Ab, Db, Gb, Bb, D#
Or - D#, G#, C#, F#, A#, D#

Intro
1,4| 2,5| 3,6|
|----------|-------------|-----------------|-----------------------------|
|----------|-------------|-----------------|-----------------------------|
|----------|-------------|-----8---9--8----|--------------------7--6--5/-|
|-7--9-x-9-|-9-9-12--7-6-|-x-9-8-x-9--8-10-|-9-9-9-9-10-6/7-7-x-7--6--5/-|
|-7--9-x-9-|-9-9-12--7-6-|-x-9-6-x-7--6-10-|-9-9-9-9-10-6/7-7-x-5--4--3/-|
|-5--7-x-7-|-7-7-10--5-4-|-x-7---x------8--|-7-7-7-7-8--4/5-5-x----------|

Verse
1,3|
|-----------------------|-----------------------------|-------------------|
|-----------------------|-----------------------------|-------------------|
|-----------------------|-----------------------------|-------4-4-4-4-4-4-|
|---4-4-4-4-x-4-x-4-4-4-|-2-4/5--5--5-x-10--10-10-10/-|-5-4-2-4-4-4-4-4-4-|
|---4-4-4-4-x-4-x-4-4-4-|-2-4/5--5--5-x-10--10-10-10/-|-5-4-2-2-2-2-2-2-2-|
|-0h2-2-2-2-x-2-x-2-2-2-|-0-2/3--3--3-x-8---8--8--8/--|-3-2-0-------------|
PM... PM... PM...........................

2| 4| 5|
|-------------|-----------------------------------|-----------|
|-------------|-----------------------------------|-----------|
|-4-4-4-4-4-2-|-----------------------------------|-------8~~-|
|-4-4-4-4-4-2-|-5--4--5--5--5--5--5-5-x-x-5--4--5-|-4--5--8~~-|
|-2-2-2-2-2-0-|-5--4--5--5--5--5--5-5-x-x-5--4--5-|-4--5--6~~-|
|-------------|-3--2--3--3--3--3--3-3-x-x-3--2--3-|-2--3------|
PM.....................

Middle 8

|------|----------------------------|
|-BASS-|----------------------------|
|------|----------------------------|
|------|-8/10---8/10---8/10---10/12-|
|-ONLY-|-8/10---8/10---8/10---10/12-|
|------|-6/8----6/8----6/8----8-/10-|
| Play x 8

TRUMPET SOLO Backing

|------------------------------------------------------------------------|
|------------------------------------------------------------------------|
|------------------------------------------------------------------------|
|-9-9-9-9-9-9-9-9-9-9-9^-9---9-9-9-9-9-9-9-9-9-9-9^-9---7-9-12-9-x-x-7-9-|
|-9-9-9-9-9-9-9-9-9-9-9^-9---9-9-9-9-9-9-9-9-9-9-9^-9---7-9-12-9-x-x-7-9-|
|-7-7-7-7-7-7-7-7-7-7-7^-7---7-7-7-7-7-7-7-7-7-7-7^-7---5-7-10-7-x-x-5-7-|
PM......... PM... PM... PM......... PM... PM...
Play x 2

|----------|
|----------|
|----------|
|-12-9-7~~-|
|-12-9-7~~-|
|-10-7-5~~-|

Outro
1,3|
|-----------------------|-----------------------------|-------------------|
|-----------------------|-----------------------------|-------------------|
|-----------------------|-----------------------------|-------4-4-4-4-4-4-|
|---4-4-4-4-x-4-x-4-4-4-|-2-4/5--5--5-x-10--10-10-10/-|-5-4-2-4-4-4-4-4-4-|
|---4-4-4-4-x-4-x-4-4-4-|-2-4/5--5--5-x-10--10-10-10/-|-5-4-2-2-2-2-2-2-2-|
|-0h2-2-2-2-x-2-x-2-2-2-|-0-2/3--3--3-x-8---8--8--8/--|-3-2-0-------------|
PM... PM... PM...........................

2| 4| 5|
|-------------|-----------------------------------|--------------|
|-------------|-----------------------------------|--------------|
|-4-4-4-4-4-2-|-----------------------------------|-------8~~----|
|-4-4-4-4-4-2-|-5--4--5--5--5--5--5-5-x-x-5--4--5-|-4--5--8~~-9-|
|-2-2-2-2-2-0-|-5--4--5--5--5--5--5-5-x-x-5--4--5-|-4--5--6~~-9-|
|-------------|-3--2--3--3--3--3--3-3-x-x-3--2--3-|-2--3------7-|
PM.....................

And That's It.

Contact me if you have any coments about this tab.

Log In to leave a comment

After registration we will return you to the same place
Comments
face-with-monocle
If you wait a bit, some comments may appear here...

Shhh...

Versions

Most Popular
You Might Like