Loading...
Megadeth logo

Promises Megadeth

  • 0
  • Share
  • Transposing
    0
  • Font Size
Al Pitrelli's Solo
|--------7------------------------------10-10/12---------19--|
|------9---/11~~---------------------12-----------14----------|
|----9----------11~~--------------12-----------------14-------|
|-/9----------------11~12~~--/12-----------------------------|
|-------------------------------------------------------------|
|-------------------------------------------------------------|

|--------16-19-/18~~---------------------------------------14/17-16-|
|-----17------------19~14~15h17-15---15--1514-12/14-15/17----------|
|-/16---------------------------------------------------------------|
|-------------------------------------------------------------------|
|-------------------------------------------------------------------|
|-------------------------------------------------------------------|

|--------7------------------------------10-10/12--------|
|------9---/11~~---------------------12-----------14----|
|----9----------11~~--------------12-----------------14-|
|-/9----------------11~12~~--/12-----------------------|
|-------------------------------------------------------|
|-------------------------------------------------------|

Log In to leave a comment

After registration we will return you to the same place
Comments
face-with-monocle
If you wait a bit, some comments may appear here...

Shhh...