Megadeth logo

1000 Times Goodbye Megadeth

  • 0
  • Share
  • Font Size
    15
Megadeth – 1000 Times Goodbye
                                MEGADETH
                            1000 TIMES GOODBYE
Standerd tuning
Intro
Moderately fast=158
|-----------------------------------|
|-----------------------------------|
|-----------------------------------|
|-----------------------------------| play 7
|-----------------------------------| times
|--0-0-0-0-1-1-1-1-0-0-0-0-4-3-2-1--|
   pm=============================

|-----------------------------------|
|-----------------------------------|
|-----------------------------------|
|--------------------------5--------|
|-----------------------------------|
|--0-0-0-0-1-1-1-1-0-0-5^6---6-5^3--|
   pm=================

|-----------------------------------|
|-----------------------------------|
|-----------------------------------|
|-----------------------------------| play 3
|-----------------------------------| times
|--0-0-0-0-1-1-1-1-0-0-0-0-4-3-2-1--|
   pm=============================

|-----------------------------------|
|-----------------------------------|
|-----------------------------------|
|--------------------------5--------|
|-----------------------------------|
|--0-0-0-0-1-1-1-1-0-0-5^6---6-5^3--|
   pm=================

|-----------------------------------|
|-----------------------------------|
|-----------------------------------|
|-----------------------------------| play 2
|-----------------------------------| times
|--0-0-0-0-1-1-1-1-0-0-0-0-4-3-2-1--|
   pm=============================

|-------------------------------------------------------------------|
|-------------------------------------------------------------------|
|-------------------------------------------------------------------|
|----------------------------------------------------------5--------|
|-------------------------------------------------------------------|
|--0-0-0-0-1-1-1-1-0-0-0-0-4-3-2-1-0-0-0-0-1-1-1-1-0-0-5^6---6-5^3--|
   pm=================================================

|-------------------------------------------------------------------|
|-------------------------------------------------------------------|
|-------------------------------------------------------------------|
|----------------------------------------------------------5--------| play 4
|------5^7-----5^7---------------------5^7-----8^7------------------| times
|--0-0-----0-0-----0-0-0-0-0-0-0-0-0-0-----0-0-----0-0-5^6---6-5^3--|
   pm=     pm=     pm=================     pm=     pm=

|---------------------------------------------------------------|
|---------------------------------------------------------------|
|---------------------------------------------------------------|
|---------------------------------------------------------------| play 2
|--0-----2-------3-------2-------0-----2-------3-------2--------| times
|----2-2---2-2-2---2-2-2-0---1-2---2-2---2-2-2---2-2-2-0---1-2--|
     pm=   pm===   pm===           pm=   pm===   pm===

Log In to leave a comment

After registration we will return you to the same place
Comments
face-with-monocle
If you wait a bit, some comments may appear here...

Shhh...