Loading...
  • 0
  • Share
  • Transposing
    0
  • Font Size
Tabbed by Pilk
Artist: Me First And The Gimme Gimmes
Key:

> = keep strumming
Stop. = play the chords and then stop (listen to the music)
P. = Palm mute

Intro:
E|---------------------|
B|---------------------|
G|-----------------5---|
D|--7----3----5----5->-|
A|--7->--3->--5->--3---|
E|--5----1----3--------|

Verse: 1
E|----------------------------------------------|
B|----------------------------------------------|
G|-------------7-------5-------5-------7---9----|
D|--7----3-----7->-5---5->-3---5->-3---7->-9->--| X2
A|--7->>-3->>--5---5->-3---3->-3---3->-5---7----|
E|--5----1---------3-------1-------1------------|

Chorus: 1
E|------------------------------------------------------|
B|------------------------------------------------------|
G|------7-------10---10----7---5--------5---4---3---3---|
D|--7---7->-7---10->-10->--7->-5->-5----5->-5->-3->-3->-|
A|--7->-5---7->--8----8----5---3---5->--3---3---1---1---|
E|--5-------5----------------------3--------------------|

Key Change Over
E|------------------------------|
B|------------------------------|
G|-3-----------3-----------6----|
D|-3->-stop.---3->-stop.---6->--|
A|-1-----------1-----------4----|
E|------------------------------|

Verse: 2
E|-------------------------------------------------|
B|-------------------------------------------------|
G|-3---------8-------6-------6-------8---10--------|
D|-3->-4-----8->-6---6->-4---6->-4---8->--8->--8---|
A|-1---4->---6---6->-4---4->-4---4->-6----8----8->-|
E|-----2---------4-------2-------2-------------6---|

Verse: 2 continued
E|---------------------------------------------|
B|---------------------------------------------|
G|-3---8-----8-------6-------6-------8---10----|
D|-3->-8->---8->-6---6->-4---6->-4---8->--8->--|
A|-1---6-----6---6->-4---4->-4---4->-6----8----|
E|---------------4-------2-------2-------------|
P. P.

Chorus: 2
E|-------------------------------------------------------|
B|-------------------------------------------------------|
G|-----------8------------11---11---8---6-------6--------|
D|--8--------8->stop--8---11->-11->-8->-6->-6---6->-hold-|
A|--8->stop--6--------8->--9----9---6---4---6->-4--------|
E|--6-----------------6---------------------4------------|

Log In to leave a comment

After registration we will return you to the same place
Comments
face-with-monocle
If you wait a bit, some comments may appear here...

Shhh...