Loading...
Matchbox 20 logo

Real World Matchbox 20

  • 0
  • Share
  • Transposing
    0
  • Font Size
Song:   Real World
Artist: Matchbox 20
Tuning: G D A E
From: David Oleniacz [email protected]

Intro 3x
|-------------------|------------------|
|*-1-----------3---*|--1---------3-1---|
|*-----------1---1-*|----------------3-|
|-------------------|------------------|
1 & 2 & 3 & 4 & 1 & 2 & 3 & 4 &

Verse 3x
|----------------|----------------|---------------|----------------|
|*---------3-----|---------1---3-*|---------3-----|---------1-3----|
|*-1-------------|---------------*|-1-------------|-------------3 -|
|--------------1-|-3--------------|-------------1-|-3--------------|
1 2 & 3 & 4 & 1 2 & 3 & 4 & 1 2 & 3 & 4 & 1 2 & 3 & 4 &

|----------------|----------------|---------------|----------------|
|----------3-----|---------1-3----|---------3-----|---------3-1----|
|--1-------------|-------------3--|-1-------------|-------------31-|
|--------------1-|-3--------------|-------------1-|-3--------------|
1 2 & 3 & 4 & 1 2 & 3 & 4 & 1 2 & 3 & 4 & 1 2 & 3 & 4 &
_______________ _________________
3x |1. |2.
|-------------------|------------------|-----------------|
|*-1-----------3---*|--1---------3-1---|-1-1-3-3-1-----13|
|*-----------1---1-*|----------------3-|----------31-13--|
|-------------------|------------------|-----------------|
1 & 2 & 3 & 4 & 1 & 2 & 3 & 4 & 1 & 2 & 3 & 4 &

Chorus
|---------------|---------------|---------------|-----------------|
|-----------1-3-|-----3---------|-----------5-3-|-----3-----------|
|-1-1-----3-----|---3---------3-|-1-1-----3-----|---3-----------3-|
|---------------|---------1-3---|---------------|-----------1-3---|
1 & 2 3 & 4 & 1 & 2 3 & 4 & 1 & 2 3 & 4 & 1 & 2 & 3 & 4 &

|---------------|---------------|---------------|-----------------|
|-----------1-3-|-----3---------|-----------5-3-|-----3-----------|
|-1-1-----3-----|---3---------3-|-1-1-----3-----|---3-------0-1-3-|
|---------------|---------1-3---|---------------|---------3-------|
1 & 2 3 & 4 & 1 & 2 3 & 4 & 1 & 2 3 & 4 & 1 & 2 & 3 & 4 &

3x
|-------------------|-----------------|

|*-1-----------3---*|-1-1-3-3-1-----13|
|*-----------1---1-*|----------31-13--|
|-------------------|-----------------|
1 & 2 & 3 & 4 & 1 & 2 & 3 & 4 &

Solo
|-----3---------|---------------|-----3---------|-----------------|
|---------3-----|-----5---1-3---|---------3-----|-----5---3-1-0---|
|-1-1-----------|-------------0-|-1-1-----------|-------3-------3-|
|-------------1-|-3-3-----------|-------------1-|-3-3-------------|
1 & 2 3 & 4 & 1 & 2 3 & 4 & 1 & 2 3 & 4 & 1 & 2 & 3 & 4 &

Verse

Chorus

2nd time
|-----------------|---------------|---------------|-----------------|
|---------1-0-1-3-|---------------|-----------3-4-|-----------3-----|
|--------1--------|---------5-3-1-|---------3-----|-------------3-1-|
|-----------------|-3-3-3---------|---------------|-3-3-3-3-3-------|
1 & 2 & 3 & 4 & 1 & 2 3 & 4 & 1 & 2 3 & 4 & 1 & 2 & 3 & 4 &

|------------------|----------------|---------------|
|------0-0-1-1-3-4-|-5-5-5----------|-----------0-3-|
|----1-------------|---------5-3-1--|-------1-3-----|
|------------------|----------------|---------------|
1 & 2 & 3 & 4 & 1 & 2 3 & 4 & 1 & 2 3 & 4 &

3x
|-------------------|-------------2-2-|
|*-1-----------3---*|-1-1-3-3-5-5-----|
|*-----------1---1-*|-----------------|
|-------------------|-----------------|
1 & 2 & 3 & 4 & 1 & 2 & 3 & 4 &

Solo
|-3-3-----------|----------------|-----3---------|-----------------|
|---------3---3-|-5-5-----1-3----|---------3-3---|-----5---3-1-0---|
|---------------|-------------0--|-1-1-----------|-------3-------1-|
|---------------|----------------|-------------1-|-3-3-------------|
1 & 2 3 & 4 & 1 & 2 3 & 4 & 1 & 2 3 & 4 & 1 & 2 & 3 & 4 &

3x
|-------------------|-------------2-2-|
|*-1-----------3---*|-1-1-3-3-5-5-----|
|*-----------1---1-*|-----------------|
|-------------------|-----------------|
1 & 2 & 3 & 4 & 1 & 2 & 3 & 4 &

Chorus

3rd time
|------------------|----------------|----------------|
|*---1---0-----1-3-|-----------5-3-*|--1---0-0-------|
|*-----------3-----|-1-1-----3-----*|----------3-0-1-|
|------------------|----------------|----------------|
1 & 2 & 3 & 4 & 1 & 2 3 & 4 & 1 & 2 & 3 & 4 &

2x
|-------------------|-----------------|
|*-1-----------3---*|-1-1-0-0-10----1-|
|*-----------1---1-*|-----------1-1---|
|-------------------|-----------------|
1 & 2 & 3 & 4 & 1 & 2 & 3 & 4 &

Log In to leave a comment

After registration we will return you to the same place
Comments
face-with-monocle
If you wait a bit, some comments may appear here...

Shhh...

Most Popular
You Might Like