• 0
  • Share
  • Font Size
    15
Matchbox 20 – Cold
Song: Cold
Artist: Matchbox Twenty
Album: More than You think You Are
Tabbed by: Andy Whiteway

Introduction:

E-------------------------------------
B-------------------------------------
G-------------------------------------
D----5-7-5-7-7-5-7-5-7-5---5-7--------
A------------------------7------------
E-------------------------------------

E------------------------------------
B------------------------------------
G--------------------------5b-5b-----
D----5-7-5-7-7-5-7-5---5-7-----------
A--------------------7---------------
E------------------------------------

(Kyle's fill's in the verse and chorus i'm still working on,
But this is what Adam play's in verse and chorus)

Verse

I will do without out....
(PM...........................) TIMES 3
E-------------------------------
B-------------------------------
G-------------------------------
D-------------------------------
A-------------------------------
E---3-5-3-5-5-3-5---------------

The spaces in between......
E----------------8-~----8--~-----
B----------------8-~----8--~-----
G----------------9-~----9--~-----
D-----------------------10-~-----
A--------------------------------
E--------------------------------

Tell me why you gotta be so cold, How'd you get so....
E--0------------------------------3----------------
B--1------------------------------3-----------------
G--0------------------------------0----------------
D--2------------------------------0------------
A--3------------------------------x-------------
E---------------------------------3--------------

You don't know, you don't know.....
E-0---------------------1-------------
B-1---------------------1-------------
G-2---------------------2-------------
D-2---------------------3-------------
A-0---------------------3-------------
E-----------------------1-------------

Tell me why how we're gonna make it last
E--0------------------------------
B--1------------------------------
G--0------------------------------
D--2------------------------------
A--3------------------------------
E---------------------------------
					       (  2nd time   )
You're ready to fly i'm ready to crash, don't go..don't go..
E------3----------------0-------------0----------1-----
B------3----------------0-------------1----------1-----
G------0----------------1-------------2----------2-----
D------0----------------2-------------2----------3-----
A------x----------------2-------------0----------3-----
E------3----------------0------------------------1------

Middle: Play the Introduction

Final Chorus: Key change up 2 steps

Tell me why you gotta be so cold, How'd you get so....
E--2------------------------------0----------------
B--3------------------------------2-----------------
G--2------------------------------2----------------
D--0------------------------------2------------
A---------------------------------0-------------
E------------------------------------------------

You don't know, you don't know.....
E-2---------------------3-------------
B-3---------------------3-------------
G-4---------------------0-------------
D-4---------------------0-------------
A-2---------------------x-------------
E-----------------------3-------------

Tell me why how we're gonna make it last
E--2------------------------------
B--3------------------------------
G--2------------------------------
D--0------------------------------
A---------------------------------
E---------------------------------
					       (  2nd time   )
You're ready to fly i'm ready to crash, don't go..don't go..
E------0----------------2-------------2----------3-----
B------2----------------2-------------3----------3-----
G------2----------------3-------------4----------0-----
D------2----------------4-------------4----------0-----
A------0----------------4-------------2----------x-----
E-----------------------2------------------------3-----

End:
E-------------------------------------------------
B-------------------------------------------------
G-------------------------------------------------
D-----7-9-7-9-9-7-9-7-9-7---7-9--7-9-7-9-9-7-9-s~-
A-------------------------9-----------------------
E-------------------------------------------------

Comments, corrections, Mb20 backstage passes: andrewwhiteway@hotmail.com

Log In to leave a comment

After registration we will return you to the same place
Comments
face-with-monocle
If you wait a bit, some comments may appear here...

Shhh...