Matchbook Romance logo

Tiger Lily Matchbook Romance

  • 0
  • Share
  • Font Size
Matchbook Romance – Tiger Lily
This is my version of Tiger Lily, the acoustic track from Matchbook Romance. It
Could be down a half step, you can try it that way if you would like, these are
The chords though. I didn't write out the strumming pattern. If you want a more
Detailed tab, email me and I'll work on it. This is my first tab I've put up on a
Site but if you need any songs tabbed out just email me. [email protected]

Verse
E-3-3-3-3-3----------------3-3-3-3-3-----------------------------
B-3-3-3-3-3----------------3-3-3-3-3-----------------------------
G-0-0-0-0-2----------------0-2-0-0-2-----------------------------
D-0-2-2-2-0--do that twice-0-0-2-2-0-----------------------------
A-2-3-2-3-0----------------2-0-2-3-0-----------------------------
E-3---0---2----------------3-2-0---2-----------------------------

Chorus
E-3-3-3-3-3------------------------------------------------------
B-3-3-3-3-3------------------------------------------------------
G-0-2-0-0-2------------------------------------------------------
D-0-0-2-2-0------------------------------------------------------
A-2-0-2-3-0------------------------------------------------------
E-3-2-0---2------------------------------------------------------

This tab brought to you by: -D-Dizzle-

Log In to leave a comment

After registration we will return you to the same place
Comments
face-with-monocle
If you wait a bit, some comments may appear here...

Shhh...

Most Popular