Loading...
Marvelous 3 logo

Indie Queen Marvelous 3

  • 0
  • Share
  • Transposing
    0
  • Font Size
Artist: Marvelous 3
Title: Indie Queen
Album: Hey!Album
Tabbed by: Curtis McCartney
Send Comments to: [email protected]

Riff A
======
G:----------------------------------------------------------|
D:----------------------------------5-0-----5---5-0-----5---|
A:-----------------------------5555-----2-3---3-----2-2---2-|
E:-33333333-22222222-000000000------------------------------|

Riff B
======
G:-----------------------------|
D:-----------------------------|
A:-00000000-10-9-7-5-----------|
E:-------------------8-7-5-2-3-|

Riff C
======
G:---------------|
D:---0---7-5-----|
A:-----3-----0---|
E:-3-----------2-|

Riff D
======
G:----------------------|
D:----------------------|
A:-----------3333333333-|
E:-333333333------------|

Riff E
======
G:--------------------------------------------------------|
D:--------------------------------------------------------|
A:-------6666-7777--6666--5555-3333-5555--3p2-3p2-3p2-3p2-|
E:-3333---------------------------------------------------|

Riff F
======
G:----------------------------------------------------------------------|
D:----------------------------------------------------------------------|
A:-------------------3333---------5-2-0000---3-0---5-2-3333-------------|
E:-333-2222-11111111------3-3-5-3----------3-----3----------3333--------|
+
G:--------------------------|
D:--------------------------|
A:--------------------------|
E:-11111111-1p0-1p0-1p0-1p0-|

Riff G
======
G:-------------------------------------|
D:-------------------------------------|
A:-00000000-22222222-33333333-55555555-|
E:-------------------------------------|

Outro
======
G:---------------------------------------|
D:------------------0----------7-5-2-0---|
A:----------------2---33333333---------0-|
E:-33333333333333------------------------|

Order Played:
=============
A
B
C (2 times)
D (2 times)
E
A
B
C
D (2 times)
E
A
B
A
B
F
A
B
A
G
*Outro* (7 times and fade on 8 or 8 times and end with E-3)

$$$$$$$$$$$$$$$$$$$$$$$$$$$$$$$$$$$$$$$$$$$$$$$$$$$$$$$$$$$$$$$
Tabber's Note:
--------------
Remember; I tabbed this sucker so you didn't have to -
Don't disrespect me like other people have in the past
By changing a small detail and taking credit for it.
For all you cool people - have fun and enjoy! =)

Log In to leave a comment

After registration we will return you to the same place
Comments
face-with-monocle
If you wait a bit, some comments may appear here...

Shhh...

Most Popular