Loading...
Marilyn Manson logo

I Dont Like The Drugs Marilyn Manson

  • 0
  • Share
  • Transposing
    0
  • Font Size
Song:I dont like the drugs
Artist:Marilyn Manson

Riff 1
E|----------
B|----------
G|-------22-
D|-44-44-22-
A|-44-44-00-
E|-22-22----

Riff 2 w/wah wah x2 then to riff 3 then back to 2
E|---------------------------------
B|---------------------------------
G|-4-4-2-5-5-4-5-4-4-4-2-5-4-4-12^-
D|---------------------------------
A|---------------------------------
E|---------------------------------

Riff 3 w/wah wah
G|-121--

Riff 4
E|---------------------------
B|---------------------------
G|---------------------------
D|-4-4-7-4-4-7-4-4-7-4-4-9-7-
A|-4-4-7-4-4-7-4-4-7-4-4-9-7-
E|-2-2-5-2-2-5-2-2-5-2-2-7-5-

Riff 5
E|-------------------------------
B|-------------------------------
G|----------2-4-2----------4-2-4-
D|-4-44-4-4-2-4-2-4-44-4-4-4-2-4-
A|-4-44-4-4-0-2-0-4-44-4-4-2-0-2-
E|-2-22-2-2-------2-22-2-2-------

If your familiar with the song it will sound a little better,
If your not then its a kick ass song,JOHN RULZ.
===========

>From Max Bedeker

I DON'T LIKE THE DRUGS (BUT THE DRUGS LIKE ME)
Normal tuning

Intro

E-------------|
B-------------|
G---------2-2-|
D-4-4-4-4-2-2-|
A-4-4-4-4-0-0-|
E-2-2-2-2-----|

Verse

E---------------------
B---------------------
G-2---2---2---2----5*-
D-2-2-2-2-2-2-2-2*-5*-
A-0-2-0-2-0-2-0-2*-3*-
E---0---0---0---0*----

With wah-wah

Pre chorus

Riff 1

E--------
B----12--
G-13-----
D--------
A--------
E--------

Riff 2

E---------
B---------
G---------
D-4--7----
A-4--7----
E-2--5----

These 2 riffs are played at the
Same time
Play each chord/note 4 times

Chorus

E------------------------------------------
B------------------------------------------
G------------------2-4------------------4-2
D-4--4--4--4--4--4-2-4-4--4--4--4--4--4-4-2
A-4--4--4--4--4--4-0-2-4--4--4--4--4--4-2-0
E-2--2--2--2--2--2-----2--2--2--2--2--2----

Mail me any corrections or requests at:
[email protected]

Log In to leave a comment

After registration we will return you to the same place
Comments
face-with-monocle
If you wait a bit, some comments may appear here...

Shhh...