Loading...
Marcy Playground logo

Sunday Mail Marcy Playground

  • 0
  • Share
  • Transposing
    0
  • Font Size
Artist: Marcy Playground
Album: Shapeshifter
Song: Sunday Mail

(Note That these riffs all have loose palm muting at times)

Verse Riff:
-------0---0----------0----------0---0--------0-|
-------8---8----------8----------2---2--------2-|
-------7---7----------7----------0---0--------0-|
-------6---6----------6----------2---2--------2-|
-------7---7----------7---0--0---0---0--0--0--0-|
0--0---0---0---0--0---0-------------------------|

Chorus:
--------2--2--------2--------0--0--------0-------|
--------3--3--------3--------0--0--------0-------|
--------2--2--------2--------1--1--------1-------|
--0--0--0--0--0--0--0--------2--2--------2-------|
-----------------------------2--2--------2--0--0-|
-----------------------0--0--0--0--0--0--0-------|

Post Chorus Riff:
X--x--------x--------x--x--------x-|
2--2--------2--------2--2--------2-|
2--2--------2--------2--2--------2-|
2--2--------2--------2--2--------2-| X(2)
0--0--0--0--0--0--0--0--0--0--0--0-|
X--x--------x--------x--x--------x-|

This same type of rhythm is kept throughout the song. The part above goes D,E,A,D,E,A,G,D,E,A,D, E

Lyrics go:

Verse 1:
I'm just out here in the street practically
I'm just waitin' for the Sunday mail
Oooo it doesn't come

Chorus:
Will you send me something soon
Will you swing me near the moon
With those words, I know
I know you will, I know you will
I know you will

Verse:
I'm just out here in the street, practically
I'm just waitin' for the Sunday mail
Aooo it never comes oooo

Chorus:
Will you send me something soon
Will you swing me near the moon
With those words, I know
I know you will, I know you will
I know you will, I know you will

Log In to leave a comment

After registration we will return you to the same place
Comments
face-with-monocle
If you wait a bit, some comments may appear here...

Shhh...