Marcy Playground logo

A Cloak Of Elvenkind Marcy Playground

  • 0
  • Share
  • Transposing
    0
  • Font Size
Marcy Playground – A Cloak Of Elvenkind
A Cloak Of Elvenkind
G Em C D

E ----3---- ----0---- ----0---- ----2----|
B ----0---- ----0---- ----1---- ----3----|
G ----0---- ----0---- ----0---- ----2----|
D ----0---- ----2---- ----2---- ----0----|
A ----2---- ----2---- ----3---- ----0----|
E ----3---- ----0---- --------- ---------|

Riff 1

E ---------------------------------------------|
B ---------------------------------------------|
G ---------------------------------------------|
D ------------------------2-------------4-5----|
A ------2--------2----3-3---3(slide)5-5--------|
E --3-3---3--0-0---0---------------------------|

Riff 2

E -------------------|
B -------------------|
G -------------------|
D ---0h2-0-----------|
A ----------3--------|
E -------------------|

G Em
A cloaking robe of elvenkind
C D
Hangs in my wardrobe behind
G Em
All the thing that mother said
C D
Were proper for a boy

Chorus:

G D C G D C
And I know I, I, I could not say why, why, why
G D C G D C (Riff 2)
On this summer evening. Oh-oh-oh Oh Oh Oh

G Em
Sixteen books of magic spells
C D
Stacked below the cloak of elves
G Em
And sixteen books on magic spells
C D
So elegantly bound

(chorus)

G D C G C
And I know something...something about you
G D C
Oh-oh-oh Oh oh oh

G D C G C
And I know something...something about you
G D C (Riff 1) 4x (play with chords)
Oh-oh-oh Oh oh oh Oh....

G Em
A cloaking robe of elvenkind
C D
Hangs in my wardrobe behind
G Em
All the thing that mother said
C D
Were proper for a boy

Log In to leave a comment

After registration we will return you to the same place
Comments
face-with-monocle
If you wait a bit, some comments may appear here...

Shhh...