Loading...
Майк Науменко logo

Мажорный рок-н-ролл Майк Науменко

  • 0
  • Share
  • Transposing
    0
  • Font Size
Intro:
E|--------7--9-|-12-12-12-12-12-12-12-12-|-12-10-------------------|
B|-----9-------|-12-12-12-12-12-12-12-12-|-12----12-11-10----------|
G|-------------|-------------------------|----------------12-9-----|
D|-------------|-------------------------|----------------------12-|
A|-------------|-------------------------|-------------------------|
E|-------------|-------------------------|-------------------------|

E|------------------------------------|--------------------------|
B|----------------12-12-12-12-12------|--------10--------10------|
G|-12-9-12-9--12----------------------|-8--9-------8--9-----8--9-|
D|------------------------------------|--------------------------|
A|------------------------------------|--------------------------|
E|------------------------------------|--------------------------|

E|-----------------------------------------------------------|
B|-10-------10-------10----9--------9---------------9------9-|
G|----8--9-----8--9-----8--9--------9---------7--9--9------9-|
D|-------------------------9--------9---------------9------9-|
A|-----------------------------------------------------------|
E|-----------------------------------------------------------|

E|-------7--------7-------|-----5-----5-------0--0--2-------|---|
B|-6--7-----6--7-----6--7-|-4-5---4-5----4--5-0--0--4-------|---|
G|------------------------|-------------------1--1--4-------|---|
D|------------------------|-------------------2--2--4-------|---|
A|------------------------|-------------------2--2--2-------|---|
E|------------------------|-------------------0--0--2--2--2-|-2-|

Fill-In:
E|-------12-------12-------12-------12-------12-|-----------------|
B|-11-12----11-12----11-12----11-12----11-12----|-10--------------|
G|----------------------------------------------|----12-9-12-9-12-|
D|----------------------------------------------|-----------------|
A|----------------------------------------------|-----------------|
E|----------------------------------------------|-----------------|

E|-------------|----15----15----15----15----15----15-------15-|
B|-------------|-14----14----14----14----14----14-------14----|
G|-9-12-9-12---|----------------------------------------------|
D|-------------|----------------------------------------------|
A|-------------|----------------------------------------------|
E|-------------|----------------------------------------------|

E|-15-12-----------|-12----12----------------------------|
B|--------12-12-14-|----14----------12-------12----12-12-|
G|-----------------|-------------------------------------|
D|-----------------|-------------------------------------|
A|-----------------|-------------------------------------|
E|-----------------|-------------------------------------|

E|----12----------------0-----0-----0-----0------------|
B|-12----12--11-10-8-5-----3-----2-----1----0----------|
G|---------------------------------------------3--2--0-|
D|-----------------------------------------------------|
A|-----------------------------------------------------|
E|-----------------------------------------------------|

Outro:
E|-------12-------12------12-------10-10-------12-------12-------|
B|-11-12----11-12----11-12---11-12-------11-12----11-12----11-12-|
G|---------------------------------------------------------------|
D|---------------------------------------------------------------|
A|---------------------------------------------------------------|
E|---------------------------------------------------------------|

E|-10-10-9-9-10-10-9-9-10-10-9-9-10-10-9-9-10-10-9-9-10-10-9-9-|
B|-------------------------------------------------------------|
G|-------------------------------------------------------------|
D|-------------------------------------------------------------|
A|-------------------------------------------------------------|
E|-------------------------------------------------------------|

E|----------------------------------------------7-7-5---------|
B|------8-----8----------------8-------------7---------7------|
G|-9-------------9--r-9-----------------7>>8-------------5>>6-|
D|---9----------------------9---------------------------------|
A|------------------------------------------------------------|
E|------------------------------------------------------------|

E|---5-3-5-3--------0-----0-----0---------------------||-7-|
B|-5---------5-3-5-----3-----2-----1---0--------------||-9-|
G|----------------------------------------3--2--0-----||---|
D|----------------------------------------------------||---|
A|----------------------------------------------------||---|
E|----------------------------------------------------||---|

E|-10-7--7-----8----10----7--7----8----10-10-7--7--10-10-7--7-|
B|-9-----------9----9-------------9----9--9--9--9--9--9--9--9-|
G|------------------------------------------------------------|
D|------------------------------------------------------------|
A|------------------------------------------------------------|
E|------------------------------------------------------------|

E|-10-10-7--10--7--10------------------------12----------------|
B|-9--9--9--9---9--9--12-11-12-12-11-12-12------12----11-10----|
G|----------------------------------------------------------12-|
D|-------------------------------------------------------------|
A|-------------------------------------------------------------|
E|-------------------------------------------------------------|

E|--------------------12-12-12-12-------------12-12------------|
B|-----------------12----------------14-r-14--------------14-r-|
G|-9-9-9-----9--13---------------------------------------------|
D|-------------------------------------------------------------|
A|-------------------------------------------------------------|
E|-------------------------------------------------------------|

E|----12-12-------------12-12--10-10----------------|-----|
B|-14----------14-r-14---------------12-11-10-------|-----|
G|--------------------------------------------12--9-|-8-7-|
D|--------------------------------------------------|-----|
A|--------------------------------------------------|-----|
E|--------------------------------------------------|-----|

E E
Я посмотрел на часы - было восемь ноль одна,
E E E E
Мы танцевали, вместе с нами танцевала луна.
A E
Рок-н-ролл танцуют все кругом.
B(VII) A
Мы прыгали, крутились и вертелись так,
E B(VII)
Что пол ходил ходуном!

E E
Я посмотрел на часы - было восемь двадцать два.
E E E E
У меня начала кружиться голова.
A E
Рок-н-ролл танцуют все кругом.
B(VII) A
Мы прыгали, крутились и вертелись так,
E B(VII)
Что пол ходил ходуном!

E E
Я посмотрел на часы - было восемь сорок три.
E E E E
Твои бусы порвались. Скорее собери!
A E
Рок-н-ролл танцуют все кругом.
B(VII) A
Мы прыгали, крутились и вертелись так,
E B(VII)
Что пол ходил ходуном!

E E
Я посмотрел на часы - было девять ноль четыре.
E E E E
Я устал так, будто весь день жал гири.
A E
Рок-н-ролл танцуют все кругом.
B(VII) A
Мы прыгали, крутились и вертелись так,
E B(VII)
Что пол ходил ходуном!

E E
Я посмотрел на часы - было девять тридцать шесть.
E E E E
Ты сказала: Я устала, я хочу присесть!
A E
Я сказал: Нет, нет! Смотри - танцуют все кругом!
B(VII) A
Мы прыгали, крутились и вертелись так,
E B(VII)
Что пол ходил ходуном!

E E
Я посмотрел на часы - было десять ноль семь.
E E E E
Тебе уже восемнадцать, мне всего тридцать семь!
A E
Рок-н-ролл танцуют все кругом.
B(VII) A
Мы прыгали, крутились и вертелись так,
E B(VII)
Что пол ходил ходуном!

E E
Я посмотрел на часы - было десять сорок восемь.
E E E E
Оркестр устал, но мы снова просим:
A E
Рок-н-ролл! Танцуют все кругом.
B(VII) A
Мы прыгали, крутились и вертелись так,
E B(VII)
Что пол ходил ходуном!

E E
Я посмотрел на часы - одиннадцать ноль пять.
E E E E
Завтра мы будем танцевать опять
A E
Рок-н-ролл. Танцуют все кругом.
B(VII) A
Мы прыгали, крутились и вертелись так,
E B(VII)
Что пол ходил ходуном!

Log In to leave a comment

After registration we will return you to the same place
Comments
face-with-monocle
If you wait a bit, some comments may appear here...

Shhh...