Loading...
Madball logo

Spit On Your Grave Madball

  • 0
  • Share
  • Transposing
    0
  • Font Size
-------------------------------------------------------------------------------
SPIT ON YOUR GRAVE - Madball
-------------------------------------------------------------------------------

Tabbed by : ManuBelgium
[email protected]

E-|------------|---------------------------|-----------------------------|
B-|------------|---------------------------|-----------------------------|
G-|------------|---------------------------|-----------------------------|
D-|-4--x-x-5---|-6666-566-566-67777-74444--|--6666-566-566-67777-79999---|
A-|-4--x-x-5---|-6666-566-566-67777-74444--|--6666-566-566-67777-79999---|
E-|-2--x-x-3---|-4444-344-344-45555-52222--|--4444-344-344-45555-57777---|
Intro main riff(part 1) main riff(part2)

E-|----------------------------------------------------------------------|
B-|----------------------------------------------------------------------|
G-|--------------8-8-----------------------------------------------------|
D-|-6--6--6--6---8-8---9-9-9-9-9---4--4--4--4---4-x--3-4-5---------------|
A-|-6--6--6--6---6-6---9-9-9-9-9---4--4--4--4---4-x--3-4-5---------------|
E-|-4--4--4--4---------7-7-7-7-7---2--2--2--2---2-x--1-2-3---------------|
CHORUS

E-|---------------------.......------------------------------------------|
B-|---------------------.......------------------------------------------|
G-|---------------------.......------------------------------------------|
D-|---------------------.......------------------------------------------|
A-|---------------------.......------------------------------------------|
E-|-x-2--x-2--x-2--xxx-2.......---xx-1-----------------------------------|
FILL this part is a real bummer to tab so work it out yourself!

-------------------------------------------------------------------------------

Log In to leave a comment

After registration we will return you to the same place
Comments
face-with-monocle
If you wait a bit, some comments may appear here...

Shhh...

Most Popular