Loading...
  • 0
  • Share
  • Transposing
    0
  • Font Size
Tabbed by- Philip Goldsmith
Bass Tabs
Band-Mad Capsule Markets
Song-Good Girl

The song is pretty easy to play by ear
But i thought i'd do the tabs.

The Intro:Repeat accordingly

E:-----------------
A:-3-3-3-3-3-3-3-3-
D:-----------------
G:-----------------

The Verse:Repeat accordingly

E:----------1-1-----
A:-3-3--0-0-----3-3-
D:------------------
G:------------------

The Chorus:Repeat

E:-1-1-1-2-1-1-1-1-2-1-
A:---------------------
D:---------------------
G:---------------------

The Bridge:Repeat

E:-1-2-1-2-1-2-1-2-1-2-1-2-1-2-1-2-1-2-1-2-1-0-0-0-3-3-3
A:------------------------------------------------------
D:------------------------------------------------------
G:------------------------------------------------------

And that's it really.

Log In to leave a comment

After registration we will return you to the same place
Comments
face-with-monocle
If you wait a bit, some comments may appear here...

Shhh...

Most Popular