Mad Caddies logo

Spare Change Mad Caddies

  • 0
  • Share
  • Font Size
Mad Caddies – Spare Change
Band :	MAD CADDIES
Song : SPARE CHANGE ?
Record : JUST ONE MORE
Tabbed by : Lucette007

INTRO 12 sec...

G------------------------------------------------------------------------------
D------------------------------------------------------------------------------
A------------------------------------------------------------------------------
E------------------------------------------------------------------------------

VERSE 1

G-----------------------------------------!-------------------------------------
D-----------------------------------------!-------------------------------------
A---3---------x---5-----------5---5-------!---3----------x---5-----------5---5--
E-------3--3----------5---5---------------!--------3--3----------5---5----------

G-----------------------------------------!
D-----------------------------------------!
A---3---------x---5-----------5---5-------!
E-------3--3----------5---5---------------!

G-----------------------------------------------!-------------------------------
D-----------------------------------------------!-------------------------------
A---3---------3-------5-------------5---5-------!---3----------x---5-----------5
E-------3---3----3---------5---5----------------!--------3--3----------5---5----

G-----------------------------------------------!-------------------------------
D-----------------------------------------------!-------------------------------
A---3--------2--3--5------------5---5-----------!-------------------------------
E-------3--3--------------5---5-----------------!-------------------------------

G--------------------------------------------------!----------------------------
D--------------------------------------------------!----------------------------
A---7--7---7-----------7--8--8---------10--8-------!----------------------------
E----------------7--7-------------8--8-------------!----------------------------

G-------------------------------------------------------------------------------
D-------------------------------------------------------------------------------
A---7--7---7----------7--7----------10---10--8--8-------------------------------
E---------------7--7----------8--8----------------------------------------------

CHORUS

G----------------------------------------------! X3
D--------5---3--2------------------------------!
A---3----------------3----------------5--2-----!
E--------------------------1--1---3------------!

G-----------------------------------!-------------------------------------------
D-----------------------------------!-------------------------------------------
A-------7-------7--7----------5-----!---------5---2-----------------------------
E---5-------5------------3----------!---3---------------------------------------

G--------------------------------------------!----------------------------------
D--------------------------------------------!------------------7-5----7-5------
A---3-----------x---5-------------5---5------!-3--------x-5---------7-------7---
E--------3--3------------5---5---------------!----3--3-------5------------------

VERSE 2

G--------------------------------------------!----------------------------------
D--------------------------------------------!----------------------------------
A---3-----------x---5-------------5---5------!-3--------3-------x---5------5--5-
E--------3--3------------5---5---------------!----3--3-----3----------5--5------

G--------------------------------------------!----------------------------------
D--------------------------------------------!----------------------------------
A---3-----------x---5------------5---5-------!-3-------2-3-5---------5--5-------
E-------3---3------------5---5---------------!----3-3----------5--5-------------

G--------------------------------------------------!----------------------------
D--------------------------------------------------!----------------------------
A---7--7---7-----------7--8--8---------10--8-------!----------------------------
E----------------7--7-------------8--8-------------!----------------------------

G-------------------------------------------------------------------------------
D-------------------------------------------------------------------------------
A---7--7---7----------7--7----------10---10--8--8-------------------------------
E---------------7--7----------8--8----------------------------------------------

CHORUS

G----------------------------------------------! X3
D--------5---3--2------------------------------!
A---3----------------3----------------5--2-----!
E--------------------------1--1---3------------!

G-----------------------------------!----------------------------------!--------
D-----------------------------------!----------------------------------!--------
A-------7-------7--7----------5-----!---------5------------------------!--------
E---5-------5------------3----------!---3---------3---5-R---3-R--------!--------

G-----------------------------------!-------------------------------------------
D-----------------------------------!-------------------------------------------
A---3-------------x--5--------------!---3----------3------5-----------5--5------
E--------3--3--------------5--5-----!--------3--3-----3-------5--5--------------

G--------------------------------------------!----------------------------------
D--------------------------------------------!----------------------------------
A---3------------x---5------------5---5------!---3-----------2--3--5--------5-R-
E--------3---3------------5---5--------------!-------3---3--------------5-------

The End
G--------------------------------------------!----------------------------------
D--------------------------------------------!----------------------------------
A--------10-/-15-/-19------------------------!----------------------------------
E---8----------------------------------------!----------------------------------

I think that’s good but it can be exist error.
Play this song with reggae groove.
It’s too fun to play, good chance !

Log In to leave a comment

After registration we will return you to the same place
Comments
face-with-monocle
If you wait a bit, some comments may appear here...

Shhh...

Most Popular
You Might Like