Loading...
Machine Head logo

From This Day Machine Head

  • 0
  • Share
  • Transposing
    0
  • Font Size
T1: shavon moore, [email protected], Machine Head, From This Day, n/a

S1: phat ass song,
(Standard Tuning) E,B,G,D,A, E
V=vibrato
P=pulloff

Intro...I love this riff
E-------------------------------------------------------------|
B-------------------------------------------------------------|
G-----5-4---4-3-2----5-4---4-3v---5-4---4-3-2---5-4---4-7v----|
D--2------5--------2-----5------2-----5-------2-----5---------|
A--2---------------2------------2-------------2---------------|
E--0---------------0------------0-------------0---------------|

Riff A-played after intro(mess around with these)
E----------------------|
B----------------------|
G--------------4-4-4---|
D--4---4---4---4-4-4---|
A--2-0-2-0-2-0-2-2-2---|
E--2-0-2-0-2-0---------|

1st Verse-theres some little effects mixed in too
E--------------| E-----------------|
B--------------| B-----------------|
G--------------| G------3-2---5-3--|
D--2----2-x-2--| D--2-2-----2------|
A--2----2-x-2--| A--2-2-----2------|
E--0----0-x-0--| 4x, then E--0-0-----0------|

Chorus(again, mess around with these chords to get the timing right)
E---------------------------------------|
B---------------------------------------|
G---------------------------------------|
D--4-4-4-4-7-7-7-7-9-9-9-9-10-10-10-10--|
A--2-2-2-2-5-5-5-5-7-7-7-7-8--8--8--8---|
E--2-2-2-2-5-5-5-5-7-7-7-7-8--8--8--8---|

2nd Verse
E-------------------------| E--------------|
B-------------------------| B--------------|
G----3p2-3p2-3p2-3p2-3-5--| G--------------|
D--2----------------------| D--2----2-x-2--|
A--2----------------------| A--2----2-x-2--|
E--0----------------------| 2x then E--0----0-x-0--| 4x then

E-------------------|
B-------------------|
G------2-3-----3-5--|
D--2-2-----2-2------|
A--2-2-----2-2------|
E--0-0-----0-0------|

2nd Chorus(same as first)

After chorus play this once
E-----------------|
B-----------------|
G--2-2-2-2-2-2-2--|
D-----------------|
A-----------------|
E-----------------|

Bridge
E-----------|
B-----------|
G-----------|
D--2--4--5--|
A--2--4--5--|
E--0--2--3--|

3rd Chorus pause 1st time playing, then play normally
E-----------------------------------------|
B-----------------------------------------|
G-----------------------------------------|
D--4 7-7-7-7-9-9-9-9-10-10-10-10--|
A--2 (pause) 5-5-5-5-7-7-7-7-8--8--8--8---|
E--2 5-5-5-5-7-7-7-7-8--8--8--8---|

End
E------------------|
B------------------|
G------------------|
D--7-5-4----5-7-4--|
A--7-5-4----5-7-4--|
E--5-3-2----3-5-2--|

Log In to leave a comment

After registration we will return you to the same place
Comments
face-with-monocle
If you wait a bit, some comments may appear here...

Shhh...