Lynyrd Skynyrd logo

Call Me The Breeze Lynyrd Skynyrd

  • 10
  • Share
  • Font Size
    15
Lynyrd Skynyrd – Call Me The Breeze
Lynyrd Skynyrd
Call Me the Breeze

           -------
	   -------
           ---0---
           --3----
Is played a few times during the intro.

G||-----------------|-------|----------------|-------|-------|-----------------|
D||--7---7--57---7--|--54---|----------------|--456--|--654--|-----------------|
A||----7---7---7----|----7--|--5---5---5---5-|-------|-------|--7---7--65---5--|
E||-----------------|-------|----5---57--5---|-------|-------|----7---7---5----|
     Part I            II           III          IV      V           VI
           ------       ------
The quick  ---5--  and  ------
           --7---       ---6--
           ------       --7---

Is played every other few beats, listen to the song, its easy.

Play part one a few times, then part II, then III, then IV
Then I some more then V then VI then V and back to I.

This is an incredibly easy song to do.  Add some small improv at times if you like.

This part plays a few times at about 3:20 or so, mixed in with parts I and III.

----------------------------|
---------024--7-7--5--4--2--|
-----0--3-------------------|
----------------------------|

Again, this is an incredibly simple song, and its fun to play.
E-mail me with any corrections, comment or whatever.
Tabbed by Darren Monroe
Darren@louisville.edu

Log In to leave a comment

After registration we will return you to the same place
Comments
face-with-monocle
If you wait a bit, some comments may appear here...

Shhh...