Lumen logo

Лабиринт Lumen

  • 2
  • Share
  • Transposing
    0
  • Font Size
Lumen – Лабиринт
Вступление:
Bm
E|---------10--------9------------------|
B|--------------12-------12-------------|
G|----11----------------------11---9----|
D|--9----9----9----9---9----9----9---9--|
A|--------------------------------------|
E|--------------------------------------|

Таба для куплета:
Bm Bm/D
E|-----------------------------------------------------------------------------------|
B|---------12--------12--------12--------12--------12--------12--------12--------12--|
G|----11--------11--------11--------11--------11--------11--------11--------11-------|
D|--9----9----9----9----9----9----9----9----0----0----0----0----0----0----0----0-----|
A|-----------------------------------------------------------------------------------|
E|-----------------------------------------------------------------------------------|

Bm/G Bm/F# Bm/E
E|-------------------------------------------------------------------------------------------|
B|-----------12----------12----------12----------12--------12--------12--------12--------12--|
G|-----11----------11----------11----------11---------11--------11--------11--------11-------|
D|-------------------------------------------------------------------------------------------|
A|--10----10----10----10----10----10----10----10----9----9----9----9----7----7----7----7-----|
E|-------------------------------------------------------------------------------------------|

Bm Bm/D Bm/G
Перегружен мозг, переполнен винт.
Bm/F# Bm/E
Иду чтобы идти, лабиринт...
Bm Bm/D Bm/G
Уже в который раз, тебя я обхожу
Bm/F# Bm/E
И слышу сзади смех, но зла я не держу...

G Bm D
Ты никогда не спутаешь пути, ты стоишь.
G F# Bm
И может так и нужно, но как тогда узнать,
D G F#
Что там выше крыш.

Bm Bm/D Bm/G
Стены отразят чей-то новый крик
Bm/F# Bm/E
Можно не смотреть, там тупик.
Bm Bm/D Bm/G
Новый поворот, может там ответ,
Bm/F# Bm/E
Но это снова ты, привет.

G Bm D
Ты никогда не спутаешь пути, ты стоишь.
G F# Bm
И может так и нужно, но как тогда узнать,
D G F#
Что там выше крыш.

Log In to leave a comment

After registration we will return you to the same place
Comments
face-with-monocle
If you wait a bit, some comments may appear here...

Shhh...