Loading...
Lost Prophets logo

For Sure Lost Prophets

  • 0
  • Share
  • Transposing
    0
  • Font Size
 |intro/verse|
D|-----------------------------------------------------
A|--------10----------------10---------------10--------
F|---10---------10----10-----------10----10---------10-
C|-------------------------------------0----0-----0----
G|-8----8-----8----10----10-----10---------------------
C|-----------------------------------------------------

D---------------------|
A---------8--10--8----|
F----10------------10-|
C--0----0-------------|
G---------------------|
C---------------------|

|lead|
D|---------------------------------------------------------|
A|---------------------------------------------------------|
F|---------------------------------------------------------|
C|-3-3-3-3-3-3-3-3-5-5-5-5-5-5-7-7-0-0-0-0-0-0-0-0-0-0-0-0-|
G|---------------------------------------------------------|
C|---------------------------------------------------------|

|2nd half of verse|
D|----------------------------------------------
A|--8--8----8---8--8----8----8----8--8-10-10-10-
F|-10-10---10--10-10---10---10---10-10-10-10-10-
C|--8--8----8---8--8----8----8----8--8--8--8--8-
G|-10-10---10--10-10---10---10---10-10-10-10-10-
C|----------------------------------------------
Fm7 Fm9

D---5----5--5--5---5----5--5--5-5-5-|
A---6----6--6--6---6----8--8--6-6-6-|
F---5----5--5--5---7----7--7--7-7-7-|
C---7----7--7--7---5----5--5--5-5-5-|
G---5----5--5--5---5----5--5--5-5-5-|
C-----------------------------------|
Cm7 CmSus4 Csus4 CmSus4

|pre chorus(w/delay)|
D|-10-----5-----3-----1-|
A|--8-----6-----3-----1-|
F|----------------------|
C|----------------------|
G|----------------------|
C|----------------------|

|chorus| |lead|
D|--------------|D|-----6-----6-------------7-|
A|--------------|A|---7-----7------7------7---|
F|--------------|F|-8-----8------8---8--8-----|
C|--5----5--0-0-|C|---------------------------|
G|--3----5--0-0-|G|---------------------------|
C|--3----5--0-0-|C|---------------------------|

Log In to leave a comment

After registration we will return you to the same place
Comments
face-with-monocle
If you wait a bit, some comments may appear here...

Shhh...