Live logo

Where The Fishes Go Live

  • 0
  • Share
  • Font Size
Live – Where The Fishes Go
Live , Where the fishes go
[email protected]
Author/Artist: Live
Title: Where Fishes Go
Album: The Distance to Here
Transcribed by: Lopez-
Email: [email protected]

This tab is based on the Woodstock version of this song as I have yet to hear the
Album version. Enjoy.

-0--------------|-0---------------|----------------|----------------|---------
-3--------------|-3---------------|----------------|----------------|---------
-2--------------|-2---------------|------2---------|-----2----------|---------
-0-----0----0---|-0-----0----0----|------0------0--|-----0-------0--|---------
----------------|-----------------|----------------|----------------|---------
----------------|-----------------|----------------|----------------|---------
Intro- G1 and G2:Pick freely.

-0-0-0-0-0-0-0--3-3-3-3-3-3-3-|0-0-0---0-0-0-0--10-10-10-10-10-10-10-||-------
-3-3-3-3-3-3-3--3-3-3-3-3-3-3-|3-3-3---3-3-3-3--10-10-10-10-10-10-10-||-------
-2-2-2-2-2-2-2--5-5-5-5-5-5-5-|2-2-2---2-2-2-2--12-12-12-12-12-12-12*||-------
-0-0-0-0-0-0-0--5-5-5-5-5-5-5-|0-0-0---0-0-0-0--12-12-12-12-12-12-12*||-------
----------------3-3-3-3-3-3-3-|-----------------10-10-10-10-10-10-10-||-------
------------------------------|--------------------------------------||-------
Intro-G2: This rhythm is also used in the chorus.

--------------------------------------------|---------------------------------
-15-15-15-15-15-15-15-15--15-15-15--15-15-15|-15-15-15-15-15-15-15-15-18-18---
------------------------17--------17--------|---------------------------------
--------------------------------------------|---------------------------------
--------------------------------------------|---------------------------------
--------------------------------------------|---------------------------------
Intro-G1: This is the basic rhythm, just improvise.

-------------------||---------------------------------------------------------
-18-18-20-20-20-20-||---20b22vvvv--20b22vvvv-20b22vvvb22r20p18----------------
------------------*||---------------------------------------------------------
------------------*||---------------------------------------------------------
-------------------||---------------------------------------------------------
-------------------||---------------------------------------------------------
Intro-G1: (cont.) The intro for G1 ends with this.

----------------|-------------------------------------------------------------
----------------|-------------------------------------------------------------
-19vvvvvvvvvvvvv|-------------------------------------------------------------
----------------|-------------------------------------------------------------
----------------|-------------------------------------------------------------
----------------|-------------------------------------------------------------

--------------------|-----------------||--------------------------------------
-----------------0--|--------------3--||--------------------------------------
------2b3r2---------|-----2b3r2------*||--------------------------------------
--0-----------3-----|-0---------3----*||--------------------------------------
--------------------|-----------------||--------------------------------------
--------------------|-----------------||--------------------------------------
Verse- G1 &G2:

--------------------|--------------------||-----------------------------------
--3---6--5h6p5--3---|--------------------||-----------------------------------
------------------2-|---2----------2----*||-----------------------------------
--------------------|-0----------0------*||-----------------------------------
--------------------|-----3-----------1--||-----------------------------------
--------------------|--------------------||-----------------------------------
Pre-Chorus-G1: First time, return to verse

--0----0----0-------|--3----3------1-----||--------------------------------
--3----3----3-------|--3----3------1-----||--------------------------------
--2----2----2-------|--5----5------3----*||--------------------------------
--0----0----0-------|--5----5------3----*||--------------------------------
--------------------|--3----3------1-----||--------------------------------
--------------------|--------------------||--------------------------------
Pre-Chorus-G2: First time, return to verse.

----------------------------------------------|----------------------------
--15-15-15-15-15-15-15-15---15-15-15--15-15-15|---15-15-15-15-15-15-15-18--
-------------------------17---------17--------|-17-------------------------
----------------------------------------------|----------------------------
----------------------------------------------|----------------------------
----------------------------------------------|----------------------------
Chorus G1: G2 plays the same as the intro. G1 is similar.

-----------------------||------------0-----------|----------------------------
-18-18-18-20-20-20-20--||-15bvvvvvv--3-----------|----------------------------
----------------------*||------------2----2------|----------------------------
----------------------*||------------0----0----0-|----------------------------
-----------------------||------------------------|----------------------------
-----------------------||------------------------|----------------------------
Chorus G1: (cont.) End with this and then return to verse: G1 & G2

-0---------------|-------------------|-0----------------|-----------------|---
-3---------------|-------------------|-3----------------|-----------------|---
-2---------------|-------------------|-2----------------|-----------------|---
-0----0-----0----|---0------0--------|-0----0------0----|----0-----0------|---
-----------------|-------------------|------------------|-----------------|---
-----------------|-------------------|------------------|-----------------|---
Bridge G1 &G2: Play freely.

-|----------------------------------------------------------------------------
-|///////////15////////20///////22//////////15//////////30/////////////18////-
-|///////////15////////20///////22//////////15//////////30/////////////18////-
-|///////////15////////20///////22//////////15//////////30/////////////18////-
-|----------------------------------------------------------------------------
-|----------------------------------------------------------------------------
Outro Chorus G1: G2 plays the same as the intro. Use a slide and play

-------------------------------------------|----------------------------------
--/////////30////32///30///////32|----------------------------------
--/////////30////32///30///////32|----------------------------------
--/////////30////32///30///////32|----------------------------------
-------------------------------------------|----------------------------------
-------------------------------------------|----------------------------------
around. Fret numbers higher than 22 mean that you slide over the pickups.

Log In to leave a comment

After registration we will return you to the same place
Comments
face-with-monocle
If you wait a bit, some comments may appear here...

Shhh...