Loading...
Live logo

Lightning Crashes Acoustic Live

  • 0
  • Share
  • Transposing
    0
  • Font Size
Song title: lightning crashes (acoustic)
Performed by: live
Album: throwing copper
Tabbed by: sean carver

VERSE:
E-----------------------------------------------------------
B-----------------------------------------------------------
G-------------5-5---5-5-------------------------------------
D-------5-5XXX5-5---5-5-------------------------------------
A-3-3XXX3-3XXX5-5XXX5-5-------------------------------------
E-1-1XXX---XXX3-3XXX3-3-------------------------------------
lightning crashes, a new mother cries.............

CHORUS:
E-----------------------------------------------------------
B-----------------------------------------------------------
G-----------------------------------------------------------
D---------5-5-5-5-------------------------------------------
A-3-3-3-3-3-3-3-3-5-5-5-5-5-5-5-5---------------------------
E-1-1-1-1---------3-3-3-3-3-3-3-3---------------------------
i can feel it, coming back again..........

INTERLUDE:
E-----------------------------------------------------------
B------4-----2h4-2------------------------------------------
G-----4--4--------4-----------------------------------------
D-6--4----4-4------4----------------------------------------
A-4-6-------2-----------------------------------------------
E-----------------------------------------------------------

BRIDGE THING:

E-----------------------------------------------------------
B-----------------------------------------------------------
G-5--5555555------------------------------------------------
D-5--5555555------------------------------------------------
A-5--5555555------------------------------------------------
E-3--3333333------------------------------------------------
i can feel it!!!

I am 100% positive that the verse and chorus is correct, but im sketchy on the
Interlude, but it's close.

LOVE YOU NICOLE!

Log In to leave a comment

After registration we will return you to the same place
Comments
face-with-monocle
If you wait a bit, some comments may appear here...

Shhh...

Most Popular
You Might Like