Little Rabbits logo

La Plage Little Rabbits

  • 0
  • Share
  • Transposing
    0
  • Font Size
Little Rabbits – La Plage
Date: Mon, 30 Oct 1995 00:28:54 +0100 (MEt)
From: MORIN Alexandre
Subject: CrD: La plage (Little Rabbits)

Song: La plage
By: Little rabbits
Tabbed by: Sykander (le viking)

(Verse 1 & 2)

Am E
La mer c'est bleu
Am E
Et les poissons sont verts
Am E
Les poissons sont verts
Am E
Et la mer c'est bleu

C
C'est vrai
E
Tu sais

Am E
La mer c'est bleu
Am E
Et les elephants sont gris
Am E
Les elephants sont gris
Am E
Et la mer c'est bleu
C
C'est vrai
E
C'est un fait

(Chorus)
F G
Et tout le monde va a la plage
C Am
Parce qu'il est bien joli
F G
Et tout le monde s'amuse bien
E
A la plage

(Verse 3 & 4)
La [Am]mer c'est [E]bleu
Et les [Am]elephants y [E]vont
Les [Am]elephants y [E]vont
[Am]En vacances [E]

Les [C]elephants
Font des [E]vacanciers comme tout le monde

Les [Am]elephants y [E]montent
Dans [Am]le ba[E]teau
Mais [Am]y peuvent [E]pas
C'est [Am]trop [E]petit
Les [C]elephants y tombent a [E]l'eau
Plouf !

Les [Am]elphants y [E]nagent
Jusqu'[Am]a la [E]plage
Les [C]elephants y sont [E]sauves
Ouais !

(Chorus)

Rythm:

Verse:

N.C. Am E
--|------------(0)|--------(0)-|
--|--1-------1-(1)|-0----0-(0)-|
2 --|:-2-------2----|-1----1----:|
/4 --|:-2-------2----|-2----2----:|
--|--0-------0----|-2----2-----|
--|---------------|------------|
| |-=| | |-=|
| | | | | |
/ /. / / /. /
La mer c'est bleu et les
poissons sont verts les
poissons sont verts et la
mer c'est bleu

C E
--|---------------|------------|
--|-1-------------|------------|
--|-0-------------|-1----------|
--|-2-------------|-2----------|
--|-3-------------|-2----------|
--|---------------|------------|
C'est vrai Tu sais

Chorus:

| 1. | 2.
F G | C Am | E
--|---------------(1)|-3---3---3---3-(3)|-------------|---------|----|------|
--|--1---1---1---1(1)|-3---3---3---3-(3)|-1-----------|-1-------|-0--|------|
--|:-2---2---2---2(2)|-0---0---0---0-(2)|-0-----------|-2------:|-1--|------|
--|:-3---3---3---3---|-0---0---0---0----|-2-----------|-2------:|-2--|------|
--|--3---3---3---3---|-2---2---2---2----|-3-----------|-0-------|-2--|------|
--|------------------|------------------|-------------|---------|----|------|
|---| |---|=| |---| |---|==| | | -----------|
| | | | | | | | | | | | | z
/ / / / / / / / / / o o o

1. Et tout le monde va a la plage Pasqu'il est bien joli
2. Et tout le monde s'amuse bien a la plage

Log In to leave a comment

After registration we will return you to the same place
Comments
face-with-monocle
If you wait a bit, some comments may appear here...

Shhh...

Versions

Most Popular