Lit logo

Something To Someone Lit

  • 0
  • Share
  • Transposing
    0
  • Font Size
Lit – Something To Someone
Hello everyone.  I couldn't find this awesome song anywhere else, and it made me
Really mad, so i decided to tab it myself. This happens to be my first tab that
I'm submitting. I tabbed it with an acoustic guitar, so the intro won't sound
Quite the same as it does on the record. Anyway, I hope like it!

Drop- D tuning
Xxxx Muffled strings
PM Palm muting
~~~~ Vibrating
B Hammer on
P Pull off
///// Pick Scrape

Intro part 1

E[xxxxxxxxxxxxxxxxxxxxxxxxxxxxxxxxxxxxxxxxxxxxxxxxxxxxxxxxxxxxxxxxxxxxxxxxxxxxx
B[xxxxxxxxxxxxxxxxxxxxxxxxxxxxxxxxxxxxxxxxxxxxxxxxxxxxxxxxxxxxxxxxxxxxxxxxxxxxx
G[xxxxxxxxxxxxxxxxxxxxxxxxxxxxxxxxxxxxxxxxxxxxxxxxxxxxxxxxxxxxxxxxxxxxxxxxxxxxx
D[xxxxxxxxxxxxxxxxxxxxxxxxxxxxxxxxxxxxxxxxxxxxxxxxxxxxxxxxxxxxxxxxxxxxxxxxxxxxx
A[xxxxxxxxxxxxxxxxxxxxxxxxxxxxxxxxxxxxxxxxxxxxxxxxxxxxxxxxxxxxxxxxxxxxxxxxxxxxx
D[xxxxxxxxxxxxxxxxxxxxxxxxxxxxxxxxxxxxxxxxxxxxxxxxxxxxxxxxxxxxxxxxxxxxxxxxxxxxx

Intro part 2
Play this 3 times

E[---------------------------------------
B[---------------------------------------
G[---13-13--12---------10-10---8---------
D[---13-13--x----------x-x-----8---------
A[---11-11--10---------8-8-----6---------
D[---------------------------------------

Then this

E[----------------------------------------
B[----------------------------------------
G[---6-6--5-----3-------------------------
D[---6-6--5-----3-------------------------
A[---4-4--3-----1-------------------------
D[----------------------------------------

Verses
Note: Verse 2 is shorter than verse 1. You play verse 1 twice, and verse 2 only once

E[--------------------------------------------
B[--------------------------------------------
G[--------------------------------------------
D[---6-------------------------3--------------
A[---6-------------------------3--------------
D[---6-------------------------3--------------

E[--------------------------------------------
B[--------------------------------------------
G[------------------------------6-------------
D[----------------1-------------6-------------
A[----------------1-------------4-------------
D[----------------1---------------------------

Pre-chorus

E[--------------------------------------
B[--------------------------------------
G[--------------------------------------
D[---6------6------6------6-------------
A[---6------6------6------6-------------
D[---6-6666-6-6666-6-6666-6-------------
PM... PM... PM...

E[--------------------------------------------
B[--------------------------------------------
G[--------------------------------------------
D[---333-----------333------------------------
A[---333-----------333------------------------
D[---333-----------333------------------------

E[--------------------------------------------
B[--------------------------------------------
G[------------8---12121213p12----6------------
D[---1-1-1-----------------------6------------
A[---1-1-1-----------------------4------------
D[---1-1-1------------------------------------

Chorus

E[--------------------------------------------
B[------------------------------6-------------
G[------------------------------6-------------
D[---6--------3--------1--------4-------------
A[---6--------3--------1----------------------
D[---6--------3--------1----------------------

Play the verse, pre-chorus, and chorus parts one more time, and then this.
There are two guitar parts here. Guitar 2 is the same for this whole part, so I
Will not indicated it a 2nd time...

SOLO
Guitar 1
E[-------------------------------------------------------------
B[-------------------------------------------------------------
G[----8-8-8-6h8-6-5-1~~~~---6h8-6-5-1~~~~--5h6-5-1-5h6-5~~~~---
D[-------------------------------------------------------------
A[-------------------------------------------------------------
D[-------------------------------------------------------------

Guitar 2
E[-------------------------------------------------------------
B[-------------------------------------------------------------
G[-------------------------------------------------------------
D[----8-8888---------6-6666------------------------------------
A[----8-8888---------6-6666------------------------------------
D[----8-8888---------6-6666------------------------------------

Guitar 1
E[--------------------------------------------------------
B[--------------------------------------------------------
G[-----8-8-8h10-8-5-5h6-5-1~~~~--1~~~~3~~~~5~~~~----------
D[--------------------------------------------------------
A[--------------------------------------------------------
D[--------------------------------------------------------

Pre-chorus?
E[--------------------------------------------------------
B[--------------------------------------------------------
G[--------------------------------------------------------
D[--------------------------------3---------------1-------
A[--------------------------------3---------------1-------
D[--------------------------------3---------------1-------

E[--------------------------------------------------------
B[--------------------------------------------------------
G[---6----------6---------6-------------------------------
D[---6----------6---------6-------------------------------
A[---4----------4---------4-------------------------------
D[------------------------------//////////////////////////

After this, play the chorus twice, and then the 2nd intro part twice. If you are
Confused as to how the song goes, here's something that might help you out:

Song Structure:
Intro 1
Intro 2 (x3)
Verse (x2)
Pre-Chorus
Chorus
Intro 2
Verse (x1)
Pre-Chorus
Chorus
Solo
Pre-Chorus
Chorus (x2)
Intro 2 (x3)
*End with a soft pick scrape

This is 100% correct. That's why I didn't leave any contact info. Anyway,
I hope you like this. Peace, God bless!

Log In to leave a comment

After registration we will return you to the same place
Comments
face-with-monocle
If you wait a bit, some comments may appear here...

Shhh...