Lit logo

Lipstick And Bruises Lit

  • 0
  • Share
  • Transposing
    0
  • Font Size
Lit – Lipstick And Bruises
Lit - Lipstick And Bruises
Tabbed By: Greg Ramirez
EMail: [email protected]

Tuning: Down 1/2 step ( D# G# C# Gb)Low to High

Attention

This is the actual tab. I got this from Lit themselves.
If anything sounds wrong it's not the tab

Lipstick and Bruises

Intro and verse
-------------------------------------------------
-------------------------------------------------
--------------------------------------5--5--4----
-3--5--5--3--5--5--3--5---5--3--5--0-----------0-
^ bend in verse

Pre chorus

-------------------------------------------------
-------------------------------------------------
-5--5--5--5--5--5--5--5------------------------6-
--------------------------6--6--6--6--6--5--6----
2ndx through slide ^ 3

Chorus

-----------------------------------------------------
-----------------------------------------------------
---------------------3--2---1--1--1--1^^(1)--1--1--3-
-1--1--1--1^^(1)--0----------------------------------

---------------------------------------------------
-------------------------------------------3-------
---------------------3--2---1--1--1--1/-5-----5--3-
-1--1--1--1^^(1)--0--------------------------------

-----------------------------------------------------
-----------------------------------------------------
---------------------3--2---1--1--1--1^^(1)--1--1--3-
-1--1--1--1^^(1)--0----------------------------------

---------------------------------------------------
---------------------------------------------------
---------------------3--2---1--1--1--1--1-1-1-1/8-
-1--1--1--1^^(1)--0--------------------------------

Re-Intro

-----------------------------------------------
-----------------------------------------------
--------------------------------------5--5--4-
-3--5--5--3--5--5--3--5---5--3--5--0-----------

-----------------------------------------------------
-----------------------------------------------------
-10-12-12-10-12-12-10-12--12-10----10----10----------
--------------------------------12----12----12-10-8-
Back to verse and then chorus

Solo

------------------------------------------------
------------------------------------------------
-------------------------------------5--5--4----
-3--5--5--3--5--5--3--5--5--3--5--0-----------0-

------------------------------------------------
------------------------------------------------
-------------------------------------5--5--4----
-3--5--5--3--5--5--3--5--5--3--5--0-----------0-

------------------------------------------------
------------------------------------------------
--------------------------------------5--5---4/-
-3--5--5--3--5--5--3--5--5--3---5--0------------

---------------------------------------------
---------------------------------------------
----------------------------10--10-12-14-----
-10-12-12-10-12-12-10-12-12--12-----------x-

3rd Pre-chorus

-------------------------------------------------
----------------------------------------12-------
-5--5--5--5--5--5--5--5/-13-13-13-13-13------13-
-------------------------------------------------

-------------------------------------------------
----------------------------------------12-------
-5--5--5--5--5--5--5--5/-13-13-13-13-13------13-
-------------------------------------------------

-------------------------------------------------
----------------------------------------12-------
-5--5--5--5--5--5--5--5/-13-13-13-13-13------13-
-------------------------------------------------

------------------------------------------------
------------------------------------------------
-5--5--5--5--5--5--5--5-------------------------
-------------------------6--6--6--6--6--5--5--3-

Out Chorus

---------------------------------------------------------------
----------------/8---8---8-------------------------------------
-1---1---1---1/-------------10--------------------------3---2-
--------------------------------1---1---1---1---1---0---------

---------------------3-------5-
-------------------------3-----
-1---1---1---1--/5-------------
-------------------------------

------------------------------------------------
------------------------------------------------
-------------------3--2--1--1--1--1--1-1-1-1/8-
-1--1--1--1--1--0-------------------------------

Outro: 4x

-------------------------------------------------
-------------------------------------------------
-------------------------------------5--5--4-----
-3--5--5--3--5--5--3--5--5--3--5--0-----------0--

Log In to leave a comment

After registration we will return you to the same place
Comments
face-with-monocle
If you wait a bit, some comments may appear here...

Shhh...