Lister Aynsley logo

Sometimes It Gets To Me Lister Aynsley

  • 0
  • Share
  • Transposing
    0
  • Font Size
Lister Aynsley – Sometimes It Gets To Me
9.Sometimes it gets to me
Aynsley Lister (www.aynsleylister.co.uk)

Note:
(br) – bend and release
(b) bend

Intro
A Asus A
|---------------------|--------------------------|------------------------|
|---------------------|---2----2-33--2---2-33--2-|------------------------|
|-------9--9----------|---2--x-2-22--2-x-2-22--2-|------9--9------9-------|
|-------9--9-11-9-----|---2--x-2-44--2-x-2-44--2-|------9--9119---911-----|
|--7/11-----------11-|-0-0--x-0-00--0-x-0-----0-|---/11-------11----11---|
|---------------------|--------------------------|0-----------------------|

|-----------------------------|
|-----------------------99999-|
|-9----9--9--9--9--9--9-99999-|
|-9-11-9--9-11-11-11-11-99999-|
|-----------------------------|
|-----------------------------|

A Asus A E Esus E
|------------------------|-------------|---|-12----12---------------------|
|--2----2-33--2---2-33—2-|-------------|---|-12-14-12------12-------------|
|--2--x-2-22--2-x-2-22-2-|-1—-1-2-2--1-|---|----------11/13---13/11--9----|
|--2--x-2-44--2-x-2-44-2-|-2—-2-2-2--2-|x2-|---------------------------11|
|--0--x-0-00--0-x-0----0-|-2—-2-2-2--2-|---|------------------------------|
|------------------------|-0—-0-0-0--0-|---|------------------------------|

A Asus A E Esus E
Oh it never bothered me to do anything I had to do
Just trying to make 2 ends meet Jobs I’ve had a few
& I don’t want to be a millionaire you know I’m happy as I am
All I want is to get on air radio to everybody on dry land

D A E Esus E
& if I could be somebody else there’s no one I’d rather be
I don’t wanna be nobody else sometimes it gets to me
|----------------------------|
|---------------9------9-----|
|----9--9-------9119---9-----|
|----9--9119--------9----11-|
|-/11--------9---------------|
|----------------------------|

I found out a long time ago some of the things u gotta do
What you got and who you know so sad but so true (Same rhythm as
Some people want everything some people want to ruleVerse 1- just I don’t
Want none of that no all I need is to be here arpeggiate (pick the chords

& if I could be somebody else I know what id be
I don’t wanna be somebody else sometimes it gets to me

GA E Esus E Gsus (?)
I aint saying it wouldn’t be good
To make a little money along the way
Im only human just like you just like you
So tell me that’s ???? nothing away
|-3--|-----|------------------------|--------------------|
|-3--|-5---|-----------9-9--9-10-9--|--9-10-9--10-9-10-9-|
|-0--|-6---|-----------9-9--9--9-9--|--9--9-9---9-9--9-9-|
|-0--|-7---|-----------9-9--9--9-9--|--9-11-9--11-9-11-9-|
|-2--|-7---|-----------7-7--7--7-7--|--0----0-----0------|
|-3--|-5---|-----------0-0----------|--------------------|

Solo
p.h
|-----------------|--------------------------------|-----------------------|
|-----------------|-------------5~~~5~~~~5~~-5~~~~~|-7(br)7—-5---5~~~~-----|
|-----------------|------4---4-6-------------------|-----------------------|
|-4(b2)--42-2~~--|-/4/6---6-----------------------|-----------------------|
|-----------------|--------------------------------|-----------------------|
|-----------------|--------------------------------|-----------------------|

|--------------------------|----------------------------------------------|
|-17~~~-17~~~~-17~~~--17~~-|---17~---17~---17~~--17~----17-19(b2)~~~~-----|
|--------------------------|-18----18----18-----18---18-------------------|
|--------------------------|----------------------------------------------|
|--------------------------|----------------------------------------------|
|--------------------------|----------------------------------------------|

|-----------------------------|
|-19(br)--17------------------|
|-------------18-16~~~~18~~~--|
|-----------------------------|
|-----------------------------|
|-----------------------------|

3.48
& if I could be somebody else I know what id be
I don’t wanna be somebody else sometimes it gets to me

|----12—-12~~---12-14(b)~~|-----------------------------------------------|
|-/14--14-----14----------|-1214—12~~--1214-12~--14-12--12~~~-14-12~~-14~~|
|-------------------------|---------------------------13------------------|
|-------------------------|-----------------------------------------------|
|-------------------------|-----------------------------------------------|
|-------------------------|-----------------------------------------------|

|---------------------------------------|
|------17-17---17—-19(b2)~~~~~----------|
|---/18------18-------------------------|
|---------------------------------------|
|---------------------------------------|
|---------------------------------------|

Outro Solo 4.20
|---------------------------|-------1919—19(b2)-~~-|-19(b2)-19(b2)-19(b2)~~|
|-----17~~~~17~~-17~~-17~~~-|-19(b2)---------------|-----------------------|
|---18----------------------|----------------------|-----------------------|
|---------------------------|----------------------|-----------------------|
|---------------------------|----------------------|-----------------------|
|---------------------------|----------------------|-----------------------|

|-171617--1716—-1617~~~~17~~1716-----|------------------------------------|
|-------------17----------------17~~-|----17---17---17-19(b)-17-19(b)17---|
|------------------------------------|-/18---18---18--------18----------18|
|------------------------------------|------------------------------------|
|------------------------------------|------------------------------------|
|------------------------------------|------------------------------------|

|----------------------------|---------------19---------------------|
|-1719~~~17---19(br)-1717~~~-|---17--19—19(b)-----19-~~~--19-1717~~~|
|----------------------------|-18-----------------------------------|
|----------------------------|--------------------------------------|
|----------------------------|--------------------------------------|
|----------------------------|--------------------------------------|

Log In to leave a comment

After registration we will return you to the same place
Comments
face-with-monocle
If you wait a bit, some comments may appear here...

Shhh...

Versions

Most Popular
You Might Like