Loading...
Limp Bizkit logo

Everything Limp Bizkit

  • 0
  • Share
  • Transposing
    0
  • Font Size
Everything-Limp Bizkit
Bill, Yalls
Tabbed by Lazo Kotsios
Standard tuning, (B, E, A, D, G)

You dont realy need a five string, for this song, the B string just looks
Good to have arround

Intro:
G|--------------------------------|
D|------11~--11~-------11~---11~--|
A|---11~-------------11~----------|
E|-9~------9~---9~-9~------9~---9~|
B|--------------------------------|
Play this a heap of times,try to let all the notes run in to each other,
This is a real smooth sounding bass part, the intro goes for about 2
Minutes, you should probably use a pick, you need a touch of extra life,
Probably a stubby or a .98 mm pick, anything thiner, and you'll have too
Mutch treble, and it'll sound clicky

Just as your about to play the main part of the song, you do this about 4
Or 6 times:
G|--------------------------6/8-8-|
D|------11~------------11~--------|
A|---11~------------11~-----------|
E|-9~------9~--9~-9~------9~------|
B|--------------------------------|
At the slide on the G string, (6/8-8), the last note has a slight accent,
And sometimes, theres no slide from 6th to 8th fret

During the song, after the stupidly long intro, you play this:
G|---11p9~11p9~11-12p11-12p11---11p9~-12p11-12p11-12p11-|
D|------------------------------------------------------|
A|-9~-------------------------9~------------------------|
E|------------------------------------------------------|
B|------------------------------------------------------|

G|------------8-8-8------------8-8-8-|
D|---11-11~-----------11-11~---------|
A|-----------------------------------|
E|-9~-------7~------9~-------7~------|
B|-----------------------------------|i'll put 2 variations up for this
Little section:

G|-----9-9~----------------9-9~----------|
D|--------------9-9-9--------------9-9-9-|
A|-5/7~----------------5/7~--------------|
E|----------5/7~---------------5/7~------|
B|---------------------------------------|

G|-----------------8-8/9---------------8-8-|
D|-----11-11~----------------11-11~--------|
A|--------------------------------------6--|
E|-7/9~--9-----5/7~------7/9~------5/7~----|
B|-----------------------------------------|

Im Pretty sure this is absolutley correct, there is a few more variations,
But, it is also good to figure out/come up with your own, by your self,
Remember to play this as smooth as possible, this is a real relaxing,
Smooth sounding song.

Log In to leave a comment

After registration we will return you to the same place
Comments
face-with-monocle
If you wait a bit, some comments may appear here...

Shhh...

Most Popular
You Might Like