Loading...
Lifehouse logo

Winds Of Change Lifehouse

  • 0
  • Share
  • Transposing
    0
  • Font Size
Song:   Winds of Change
Artist Lifehouse
Tabber: [email protected]

Firstly, here's the correct tab for this song, and secondly I'm really dissapointed
That this song isn't going to be on the new album, Stanley Climfall, well hopefully
It will be made as a B-Side or something.......let's hope!

Enjoy...............................

Verse riff:

In the still of the night it shines so clear
E----------------------------------------------
B----------------------------------------------
G------0--2-h4--2--0----------0---------0------
D---0----------------0------0---------0--------
A-------------------------3-----3 3s5----------
E-3--------------------------------------------

Chorus riff:

And it seems as I get older

E----------------------------------------------
B------3--------3---------3------3----3--------
G--------0----0---0-----2---2----0----0--------
D--------------------0-------------------------
A---2-------3----------------------------------
E-0---------------------------3-----2----------

my life goes over in the winds of change
E---------------------------------------------
B---------------------------------------------
G---------------------------------------------
D---------------------------------------------
A---3--2--------------------------------------
E--------3--0---3-3--3--5--7--5-3-------------

Log In to leave a comment

After registration we will return you to the same place
Comments
face-with-monocle
If you wait a bit, some comments may appear here...

Shhh...

Most Popular
You Might Like