Loading...
Lifehouse logo

Sick Cycle Carousel Lifehouse

  • 0
  • Share
  • Transposing
    0
  • Font Size
Lifehouse – Sick Cycle Carousel
***********************************************************************
This file is the author's own work and represents their interpretation of the song.
You may only use this file for private study, scholarship, or research.
***********************************************************************
Maybe i can't please everybody but i did my best to do this. Hope you like it guys! :>
Song: Sick Cycle Carousel
Artist: Lifehouse
Album: No Name Face

Tuning: down 1/2 step (Eb G# C# F# A# eb)
Capo: none

Transcribed by: Laurence B. Hiponia
Contact me at +639203900326 or email me at [email protected] tnx!!!

Note : the guitar is tuned down a half-step
S = slide
B = hammer
X = muted or dead string

Intro : (Acoustic or clean)

F G Am F G Am
E|---------------------------------------------------------------------
B|--------------------------0-------------------------0h1p0------------
G|------------------------0----------------------------------0------0--
D|------3-2-2-0-0---2---2-----0-------3-2-2-0-0---2---------2------3---
A|----3-----x-----3---3-------------3-----x-----3----------------------
E|--1-------3---------------------1-------3----------------------------

Well here we go..
F G Am E
E|-------------------------------------------------------------x-------
B|--------------------------0----------------------------------x-------
G|------------------------0------------------------------------1-------
D|------3-2-2-0-0---2---2-----0-------3-----3------------------2-------
A|----3-----x-----3---3-------------3-----3--------------------2-------
E|--1-------3---------------------1----------------------------0-------

Drums and bass enters

Refrain:
Guitar 1(acoustic or clean strumming)listen for timing
Am Em F C C/B
E |--0----0----1----0--0-------------------------
B |--1----0----1----1--1-------------------------
G |--2----0----2----0--0-------------------------
D |--2----2----3----2--0-------------------------
A |--0----2----3----3--2-------------------------
E |-------0----1---------------------------------

Guitar 2(distortion with phaser or chorus)
E |----------------3-5------------------
B |--3-5-3-5--3-5------5----------------
G |-------------------------------------
D |-------------------------------------
A |-------------------------------------
E |-------------------------------------

Guitar 1(acoustic or clean strumming)listen for timing
Am Em F G
E |--0----0----1----3----------------------------
B |--1----0----1----3----------------------------
G |--2----0----2----0----------------------------
D |--2----2----3----0----------------------------
A |--0----2----3----2----------------------------
E |-------0----1----3----------------------------

Guitar 2(distortion with phaser or chorus)
E |-------------------------------------
B |--3-5-3-5s--12-10-8------------------
G |-------------------------------------
D |-------------------------------------
A |-------------------------------------
E |-------------------------------------

Chorus: (distortion)
Guitar 1
(2x)
C G Dm Am G
E |--0----3-----1----1---3-------------------
B |--1----3-----3----1---3-------------------
G |--0----0-----2----2---0-------------------
D |--2----0-----0----2---0-------------------
A |--3----2----------0---2-------------------
E |-------3--------------3-------------------

Guitar 2 (distortion with phaser and chorus)
E |--8----10----10---12--12-------------
B |--8----10----10---12--12-------------
G |-------------------------------------
D |-------------------------------------
A |-------------------------------------
E |-------------------------------------

Then..
Guitar 1(acoustic or clean strumming)listen for timing

F G Am
E |--x—-x--x------0---------------------
B |--x--x--x------1---------------------
G |--2--4--6------2---------------------
D |--3--5--7------2---------------------
A |--3--5--7--or--0---------------------
E |--1--3--5----------------------------

Guitar 2 (distortion with phaser and chorus)

E |-------------------------------------------------
B |--------------------12---------------------------
G |--10-10-9-9-7-7-5s9----12---10-10-9-9-7-7-5s9-7s9
D |--------------------------------------------------
A |--------------------------------------------------
E |--------------------------------------------------

2nd stanza: Guitar 1(acoustic or clean strumming)listen for timing
(3x)
F G Am
E |--x—-x--x------0---------------------
B |--x--x--x------1---------------------
G |--2--4--6------2---------------------
D |--3--5--7------2---------------------
A |--3--5--7--or--0---------------------
E |--1--3--5----------------------------

F E
E |--x—-x-------------------------------
B |--x--x-------------------------------
G |--2--1-------------------------------
D |--3--2-------------------------------
A |--3--2-------------------------------
E |--1--0-------------------------------

Refrain (same as top)

Chorus: (distortion)
Guitar 1
C G Dm Am G
E |--0----3-----1----1---3-------------------
B |--1----3-----3----1---3-------------------
G |--0----0-----2----2---0-------------------
D |--2----0-----0----2---0-------------------
A |--3----2----------0---2-------------------
E |-------3--------------3-------------------

Guitar 2 (distortion with phaser and chorus)
E |--8----10----10---12--12-------------
B |--8----10----10---12--12-------------
G |-------------------------------------
D |-------------------------------------
A |-------------------------------------
E |-------------------------------------

Guitar 1
C G Dm F G
E |--0----3-----1----1---3-------------------
B |--1----3-----3----1---3-------------------
G |--0----0-----2----2---0-------------------
D |--2----0-----0----3---0-------------------
A |--3----2----------3---2-------------------
E |-------3----------1---3-------------------

Guitar 2 (distortion with phaser and chorus)
E |--8----10----10---------------------
B |--8----10----10---------------------
G |-----------------10-----------------
D |-----------------10-----------------
A |------------------8-----------------
E |------------------------------------

Then..
Guitar 1(distort)listen for timing
Sick cycle carousel...
Am Em F C C/B
E |--0----0----1----0--0-------------------------
B |--1----0----1----1--1-------------------------
G |--2----0----2----0--0-------------------------
D |--2----2----3----2--0-------------------------
A |--0----2----3----3--2-------------------------
E |-------0----1---------------------------------

Am Em F G
E |--0----0----1----3----------------------------
B |--1----0----1----3----------------------------
G |--2----0----2----0----------------------------
D |--2----2----3----0----------------------------
A |--0----2----3----2----------------------------
E |-------0----1----3----------------------------

Am Em F C C/B
E |--0----0----1----0--0-------------------------
B |--1----0----1----1--1-------------------------
G |--2----0----2----0--0-------------------------
D |--2----2----3----2--0-------------------------
A |--0----2----3----3--2-------------------------
E |-------0----1---------------------------------
Sick cycle yeah... ahhhah...
Am Em F E
E |--0----0----1------------0--------------------
B |--1----0----1------------0--------------------
G |--2----0----2------------1--------------------
D |--2----2----3------------2--------------------
A |--0----2----3------------2--------------------
E |-------0----1------------0--------------------

Guitar 2 (distort but *power chords)
The. This is the ad lib part

Guitar 1(distortion)
F G Am
E |--x—-x--x------0---------------------
B |--x--x--x------1---------------------
G |--2--4--6------2---------------------
D |--3--5--7------2---------------------
A |--3--5--7--or--0---------------------
E |--1--3--5----------------------------

F E
E |--x—-x-------------------------------
B |--x--x-------------------------------
G |--2--1-------------------------------
D |--3--2-------------------------------
A |--3--2-------------------------------
E |--1--0-------------------------------

Chorus: (distortion)repeat as needed..
Guitar 1
(2x)
C G Dm Am G
E |--0----3-----1----1---3-------------------
B |--1----3-----3----1---3-------------------
G |--0----0-----2----2---0-------------------
D |--2----0-----0----2---0-------------------
A |--3----2----------0---2-------------------
E |-------3--------------3-------------------

Guitar 2(distortion with phaser or chorus)

E |----8-8-7---7-5---5-----------------------
B |---8------8-----------5-------------------
G |--9---------------------------------------
D |------------------------------------------
A |------------------------------------------
E |------------------------------------------

Til fade...

Well I guess that's about it. Hope you enjoyed it guys! :>
If you have any comments, suggestions or violent reactions just text or call
+639203900326 or email me at [email protected] tnx!!!

Log In to leave a comment

After registration we will return you to the same place
Comments
face-with-monocle
If you wait a bit, some comments may appear here...

Shhh...