Lifehouse logo

All In All Lifehouse

  • 0
  • Share
  • Transposing
    0
  • Font Size
Lifehouse – All In All
Intro:
E E
E|-------------------------------------|
G|-----------9-------------------------|
B|---9---8---x---9---8-----------------|
D|---9---9---9---9---9---9--9---11-11--|
A|---7---6---7---7---6---7--7---7--7---|
E|---0---0---0---0---0---0--0---0--0---|

(Verse)
Standing on top of the edge it feels like it's going down
Everything stays in my mind feeling in a daze on the ground
Feels like it's gonna give life's too hard to live anymore
I think I've had enough things too tough
I'm out the door

Chords:
E B A C#m
E|--0------0------0-------0--------|
G|--0------0------0-------0--------|
B|--9------x------x-------6--------|
D|--9------9------7-------6--------|
A|--7------9------7-------4--------|
E|--0------7------5-------0--------|

Chorus:
E B
All in all it's just another day now
A
You're falling down, What you gonna do
E B
Standing on top of the world tonight
A
No ones looking back at you
E B
Stand tall
C#m
It's going on
A
It's going on
E B
It's gonna be just fine
C#m
You're holding on
A E (back to intro)
Holding on today

Verse 2:
Things don't stop and the others announced they're moving on
Salt & tears in the minds in the mouths of a bad decision
Too late for another mistake it's bringing me down
With all your faults it isn't your fault
What's going on

Chorus

G# C# B
E|-x----x-----x---------------------|
G|-4----5-----4---------------------|
B|-5----6-----4---------------------|
D|-6----6-----4---------------------|
A|-6----4-----2---------------------|
E|-4----4-----0---------------------|

Bridge:
G# C#
So you lost yourself
G# B
So you lost your way
G# C#
Found life through someone else
G# B
But you threw it all away

Chorus

Log In to leave a comment

After registration we will return you to the same place
Comments
face-with-monocle
If you wait a bit, some comments may appear here...

Shhh...

Most Popular
You Might Like