Life Of Agony logo

Tangerine Life Of Agony

  • 1
  • Share
  • Transposing
    0
  • Font Size
    15
Life Of Agony – Tangerine
Tangerine

BY LIFE OF AGONY
From album 'soul searching sun'

Transcribed by Christian Reindel (creindel@gmx.de)
Any questions or corrections- e-mail me

TUNE DOWN ONE WHOLE STEP: Dropped C tuning

Mainriff - feel free for the rhythm
D:|----------------------------------------------------------|
A:|----------------------------------------------------------|
F:|----------------------------------------------------------|
C:|----------------------------------------------------------|
G:|-2-2-2--2----2-2-2--2-0-(0)---2-2-2--2---2-2-2--2-5-5-5---|
C:|-2-2-2--2----2-2-2--2-0-(0)---2-2-2--2---2-2-2--2-5-5-5---|

Verseriff
D:|--------------------------------------------------------------|
A:|--------------------------------------------------------------|
F:|--------------------------------------------------------------|
C:|--------------------------------------------------------------|
G:|--------------------------5~----------------------------------|
C:|--2-2-2--2----2-2-2--2-0--------2-2-2--2-----2-2-2--2-5-5-5---|
     p.m.                          p.m.

Bridge - I can't stop searching...  last note
D:|-------------------------------|-----------|
A:|-------------------------------|-----------|
F:|-------------------------------|-----------|
C:|--4-6~~~~~~-4-4-/-2~~~~~-------|-----------|
G:|-------------------------------|---3~~~----|
C:|-------------------------------|-----------|

Interlude
    still hung over from this night before......
D:|--------------------------------------------------------------------|
A:|--------------------------------------------------------------------|
F:|-9--9--9--9--9--9--9--9--9--9--9--5--5--5--5--5--5--5--5--5--5--5---|
C:|-9--9--9--9--9--9--9--9--9--9--9--5--5--5--5--5--5--5--5--5--5--5---|
G:|-7--7--7--7--7--7--7--7--7--7--7--3--3--3--3--3--3--3--3--3--3--3---|
C:|--------------------------------------------------------------------|

Guitarsolo - play with wah-wah
                                  2x
D:|-------------------------------------------------------------|
A:|-------------------------------------------------------------|
F:|---0--2---2--0-----------0--2---2--0----------0--------------|
C:|-2--------------2-----2---------------2----2-----------------|
G:|--------------------------------------------------3~~---5/-3-|
C:|-------------------------------------------------------------|

                                   2x
D:|---------------------------------------------------------------------|
A:|---------------------------------------------------------------------|
F:|----12-14--14-12----------12-14--14-12---------12^14^12--------------|
C:|-14---------- ---14----14-------------14----14-----------10---12/10--|
G:|---------------------------------------------------------------------|
C:|---------------------------------------------------------------------|

Song structure:

Mainriff  - 2 times
Verseriff - 4 times
Mainriff  - 1 time
Verseriff - 4 times
Mainriff  - 4 times
Bridge    - 4 times
Interlude - 4 times
Guitarsolo
Mainriff -  3 1/2 times

End.

Log In to leave a comment

After registration we will return you to the same place
Comments
face-with-monocle
If you wait a bit, some comments may appear here...

Shhh...