Life Of Agony logo

Lost At 22 Life Of Agony

  • 0
  • Share
  • Transposing
    0
  • Font Size
Life Of Agony – Lost At 22
Lost at 22

BY LIFE OF AGONY
From album 'ugly'

Transcribed by Christian Reindel ([email protected])
Any questions or corrections- e-mail me

TUNE DOWN ONE WHOLE STEP: Dropped C tuning

INTRO
D:|---------------------------------|
A:|---------------------------------|
F:|---------------------------------|
C:|---------------------------------|
G:|--3-3-3-3-3----------------------|
C:|---------------------------------|

Main riff (2 times)
D:|---------------------------------|-----------------|
A:|---------------------------------|-----------------|
F:|---------------------------------|-----------------|
C:|---------------------------------|----------5--(5)-|
G:|-3^555-3^555-3^555-3^555-3^5555--|--5-(5)---3--(3)-|
C:|---------------------------------|--5-(5)----------|

Riff 2 3 times 1 time
D:|----------------------|----------------------------|
A:|----------------------|----------------------------|
F:|----------------------|----------------------------|
C:|----------------------|----------------------5-(5)-|
G:|--0-0-0-0-0-0-0-0-3-5-|-0-0-0-0-0-0-0-0-3-5--3-(3)-|
C:|--0-0-0-0-0-0-0-0-3-5-|-0-0-0-0-0-0-0-0-3-5--------|
. . . . . . . . . . . . . . . .

Back to main riff ( 2 times)

Than Riff 3 this Part 3 times
D:|---------------------------------|----------------|
A:|---------------------------------|----------------|
F:|---------------------------------|----------------|
C:|---------------------------------|----------------|
G:|-3^555-3^555-3^555-3^555-3^5555--|--5-(5)---3--(3)|
C:|---------------------------------|--5-(5)---3--(3)|

D:|---------------------------------|
A:|---------------------------------|
F:|---------------------------------|
C:|--7-(7)--------------------------|
G:|--5-(5)---5~~--5~~--5~~----------|
C:|---------------------------------|

several times
D:|---------------------------------|
A:|---------------------------------|
F:|---------------------------------|
C:|---------------------------------|
G:|-3^555-3^555-3^555-3^555-3^5555--|
C:|---------------------------------|

D:|-------------------------------------|
A:|-------------------------------------|
F:|-------------------------------------|
C:|-------------------------------------|
G:|--0-0-0-0-0-0-0-0-3-5-3-(3)--3--3--3-|
C:|--0-0-0-0-0-0-0-0-3-5-3-(3)--3--3--3-|
. . . . . . . .

Interlude ( 4 times) on last Part
D:|--------------------------------|----------|----------|
A:|--------------------------------|----------|----------|
F:|--------------------------------|----------|----------|
C:|--------------------------------|----------|--5--(5)--|
G:|--------------------------------|----------|--3--(3)--|
C:|--3~--3~--3~--0---3~--3~--3~--0-|--3---5---|----------|

Guitarsolo
D:|---------------------------------|
A:|---------------------------------|
F:|---------------------------------|
C:|---------------------------------|
G:|-3^555-3^555-3^555-3^555-3^5555--|
C:|---------------------------------|

Last Verse

Main riff 1 time
D:|---------------------------------|-----------------|
A:|---------------------------------|-----------------|
F:|---------------------------------|-----------------|
C:|---------------------------------|----------5--(5)-|
G:|-3^555-3^555-3^555-3^555-3^5555--|--5-(5)---3--(3)-|
C:|---------------------------------|--5-(5)----------|

Riff 2 (2 times)
D:|---------------------------------|----------------|
A:|---------------------------------|----------------|
F:|---------------------------------|----------------|
C:|---------------------------------|----------------|
G:|-3^555-3^555-3^555-3^555-3^5555--|--5-(5)---3--(3)|
C:|---------------------------------|--5-(5)---3--(3)|

D:|-----------------------------|
A:|-----------------------------|
F:|-----------------------------|
C:|-----------------------------|
G:|--0-0-0-0-0-0-0-0-3-5-3-(3)--|
C:|--0-0-0-0-0-0-0-0-3-5-3-(3)--|
. . . . . . . .
END

Log In to leave a comment

After registration we will return you to the same place
Comments
face-with-monocle
If you wait a bit, some comments may appear here...

Shhh...

Most Popular
You Might Like