Less Than Jake logo

Ska Sucks Less Than Jake

  • 0
  • Share
  • Font Size
Less Than Jake – Ska Sucks
SKA SUCKS - Less than Jake

By: Squaddie
Email: [email protected]
Web Site:

Riff 1
G|---------------------------------------------------------------------------|
D|------4-------44-----------------------------------------------------------|
A|--555----55------5------2---------4----------------------------------------|
E|---------------------33---3---55-----5-------------------------------------|

Riff 2
G|---------------------------------------------------------------------------|
D|------4-------44-----------------------------------------------------------|
A|--555----55------5------2----------4---------------------------------------|
E|---------------------33----3---55------------------------------------------|

Riff 3
G|---------------------------------------------------------------------------|
D|-------4------44-----------------------------------------------------------|
A|--555-----55------5-------2------------------------------------------------|
E|----------------------33----3----5-----------------------------------------|

Ska doesnt really suck they're just taking the piss....ska rules

Order:

Riff 1
Riff 2
Riff 1
Riff 3

Log In to leave a comment

After registration we will return you to the same place
Comments
face-with-monocle
If you wait a bit, some comments may appear here...

Shhh...