Less Than Jake logo

Look What Happened Less Than Jake

  • 0
  • Share
  • Transposing
    0
  • Font Size
Less Than Jake – Look What Happened
Band: Less Than Jake
Song: Look What Happened
Tabbed by: Erik Carlsson ([email protected])

I think I've tabbed it pretty good, though it's really the bass that plays the intro...
Listen to the song to get the speed etc... Give me comments about it please!

Chords:
E B E/G# B/F# A/E B/D# B A F#m
E|---------------------------------------------------------------------------|
B|---------------------------------------------------------------------------|
G|-----4--------------------4----4--2----------------------------------------|
D|--2--4---6-----4-----2----4----4--2----------------------------------------|
A|--2--2---7-----6-----4----6----2--0---4------------------------------------|
E|--0------4-----2-----0----------------2------------------------------------|

Intro:
E|---------------------|---------------------|-------------------------------|
B|---------------------|---------------------|-------------------------------|
G|---------------------|---------------------|-------------------------------|
D|---------------------|---------------------|-------------------------------|
A|----2---2------2---2-|----2---2-----2---2--|-------------------------------|
E|--0---0---4/5----4---|--2---2---4/5---4----|-------------------------------| X2

Then when the brass section gets in you play:
| E B | E B | E/G# B/F# | A/E B/D# | E | E |

Verse:
| E | E | B | A |

Chorus:
E B A F#m A B
E|------------------|------------------|------------------|------------------|
B|------------------|------------------|------------------|------------------|
G|------------------|------------------|------------------|------------------|
D|----------------4-|--4-2-2-2-2-2-2-2-|------------------|--2-2-2-2-4-4-4-4-|
A|--2-2-2-2-2-2-2-2-|--2-0-0-0-0-0-0-0-|--4-4-4-4-4-4-4-4-|--0-0-0-0-2-2-2-2-|
E|--0-0-0-0-0-0-0---|------------------|--2-2-2-2-2-2-2-2-|------------------|

I think that's it... Not too hard too play! Hope you enjoy it!

Log In to leave a comment

After registration we will return you to the same place
Comments
face-with-monocle
If you wait a bit, some comments may appear here...

Shhh...