Led Zeppelin logo

In The Light Led Zeppelin

  • 0
  • Share
  • Font Size
Led Zeppelin – In The Light
In the light,
You will find the road..
You will find the road..

Riff.1 (4 times)
E|-----------------------------------|
B|-----------------------------------|
G|-----------------------------------|
D|--7--6----5-------------------(14)-|
A|-------------7----6--5-------7(12)-|
E|--------------------------7--5-----|
^--^-
both chords played at the same
Time

Riff.2
E|-------------------------------------------------------------|
B|-------------------------------------------------------------|
G|---------------------7-------------------------------7-------|
D|-------7--5--7--4-3-----7--5--7--------7--5--7--4-3----7-5-7-|
A|-0--0----------------------------0--0------------------------|
E|-------------------------------------------------------------|
Hey ooh did you ever believe that I would leave you ...

At the end of

Hey yeah baby
I know how it feels to kinda slip through
To the bitter depths of my soul -- yeah

They jump back to the first four notes of Riff.1, then directly
Back to
Riff.2. Nothing really difficult to pick up; I just thought
I would mention it.

Riff.3
E|---------------------------------------------|
B|--------------------------------5---7--9--10-|
G|--------------------------6--7---------------|
D|----------------4--6--7----------------------|
A|--0---4--5--7--------------------------------|
E|---------------------------------------------|

Riff.3 starts

I will share your love
Let me share your love
Oooooo, let me share
Share your love

(keyboard) then Riff.3

>From there, you should be able to pick up the whole song.
I have also transcribed the first 5 licks at the end of the
Song. There is some serious overdubbing to get a neat delay
Effect on these licks. I, somewhat, try to simulate a little of
That in the tab.

E|-17--------17---------17---------17--------------------------|
B|---b(19)17----b(19)17----b(19)17-----------------------------|
G|------------------------------------b16(18)-16-14-b16(18)-14-|
D|-------------------------------------------------------------|
A|-------------------------------------------------------------|
E|-------------------------------------------------------------|

E|---------------------------------------------------------|
B|---------------------------------------------------------|
G|-b(18)16-14-b(18)16-14-b(18)16--14---b(18)16--14-b16(18)-|
D|---------------------------------------------------------|
A|---------------------------------------------------------|
E|---------------------------------------------------------|

E|---------------------------------------------|
B|---------------------------------------------|
G|--b9(11)-9--7---b9(11)-9--7---7-6------------|
D|----------------------------------7----------|
A|------------------------------------b7(9)(7)-|
E|---------------------------------------------|

E|-------------------------------------------------------------|
B|--------------------------------------b8(10)--8--7---b12(14)-|
G|-----------------------b9(11)--9--7--------------------------|
D|-b9(11)-9-7-b9(11)-9-7---------------------------------------|
A|-------------------------------------------------------------|
E|-------------------------------------------------------------|

E|-------------------17------------------------------|
B|--b17(19)--17--15--------b17(18)--17--1514------14-|
G|---------------------------------------------16----|
D|---------------------------------------------------|
A|---------------------------------------------------|
E|---------------------------------------------------|

Log In to leave a comment

After registration we will return you to the same place
Comments
face-with-monocle
If you wait a bit, some comments may appear here...

Shhh...